Oops, an error
Loading. Please wait.

Its Dangerous Business Walking Out Your Front Door bass

version 1
version 1

Whole song

Interactive

8,533 views 1 this week
5 commentsread comments
1 2 3 4 5
x 5
add to favorites
×
Save as Personal and add changes to this tab that will be seen only by you. Learn more ›
×
You can save this tab as Personal to edit and correct it or add notes. All changes will be seen only by you. Learn more »
launch autoscroll
font size
0
reset
guitar tuner
edit
Autoscroll
slow
fast
+/-
esc
set tempo
stop
~ : Let ring
h : Slide

Intro (00:02)
G/-------------------------------------------|
D/-------------------------------------------|
A/-------------------------------------------|
D/-7777--7777--3333--000000555555------------|

Verse (00:16)
G/------------------------------|
D/------------------------------|
A/------------------------------|             x2
D/-7-10h5--------3-10h5---------|

Rest; Restart at 1:13 
G/------------------------------|
D/------------------------------|
A/------------------------------|             x2
D/-7-10h5--------3-10h5---------|

Chorus (01:41)
G/----------------------------------|
D/----------------------------------|
A/----------------------------------|        x4
D/-777777777777-333333-555555-------|

Part before bridge (02:10)
G/----------------------------------|
D/----------------------------------| 
A/----------------------------------|           x2
D/-222222-333333-777777-555555------|

G/----------------------------------|
D/----------------------------------|
A/----------------------------------|
D/-2~~------------------------------|

(Rest)

Bridge (02:52) 
G/-------------------------------------------|
D/-------------------------------------------|
A/-------------------------------------------|       x2
D/-7777--7777--3333--000000555555------------|

Last Chorus (03:21)
G/-------------------------------------|
D/-------------------------------------|
A/-------------------------------------|           x4
D/-777777777777-333333-555555----------|

End (3:49)
G/---------------------|
D/---------------------|
A/---------------------|
D/--7~~~---------------|
Suggest correction
Creating personal tab
Creating personal tab
You can edit any tab online and save it as your Personal.

You can edit, replace or remove any tab part or add personal notes – all changes will be seen only by you.

Personal tabs can be accessed anytime from any device, even offline.
Learn more »
comments
print report bad tab
5 comments total. Showing first comments.
0 reply
danielitri-182 10 Jun 15, 2007 10:06 AM

verse is a little off, everything else looks perfect

0 reply
bassplayer27 312 Apr 30, 2008 11:32 AM

Verse:
----------------------------------------
----------------------------------------
----------------------------------------
-7-9-5-9-3-2-5--------------------------

pretty sure thats it!!!!!

0 reply
bassplayer27 312 Apr 30, 2008 11:45 AM

Small thing in the bridge too, the second time he does something like this
---------------------------------------
---------------------------------------
---------------------------------------
-222222-333333-777977-555555-2~--------
Very small but they count

guest
You may want to rate the tab now too:
select rating
Wanna post a correction for this tab? Suggest correction