Oops, an error
Loading. Please wait.

Renventing Your Exit bass

460 views 1 this week
no commentswrite comment
1 2 3 4 5
3 more votes to show rating
add to favorites
×
Save as Personal and add changes to this tab that will be seen only by you. Learn more ›
×
You can save this tab as Personal to edit and correct it or add notes. All changes will be seen only by you. Learn more »
launch autoscroll
font size
0
reset
guitar tuner
edit
Autoscroll
slow
fast
+/-
esc
set tempo
stop
Intro(2x)-the same with 1st Verse-
G-----------------------------------------------|
D-----------------------------------------------|
A------------------3----------------------------|
D-----7---------------------3---------5---------|

Invincible!!!!(2x)
G------------------------------------------------|
D------------------------------------------------|
A------------333333333333------------------------|
D-7777777777--------------3333333333-55555555555-|

1st Stanza\2nd Tanza(2x)
G-----------------------------------------------|
D-----------------------------------------------|
A---------3----------------7-------5------------|
D-----------------------------------------------|

--It's round and round/You broke my heart--
G------------------------------------------------|
D------------------------------------------------|
A----------33333333333-55555555555-2222222222222-|
D-777777777--------------------------------------|

Prechorus(2x)-We all want to be!!!!!
G------------------------------------------------|
D------------------------------------------------|
A-333333333-77777777777-3333333333-555555555-5-5-|
D------------------------------------------------|

Chorus(4x)-This is the way I........!
G------------------------------------------------|
D------------------------------------------------|
A-----------333333333333-------------------------|
D-7777777777------------333333333333-55555555555-|

Breakdown(2x)-Reaching Out!!!
G-----------------------------------------------|
D-----------------------------------------------|
A-33333---3333---7777--5555---------------------|
D-----------------------------------------------|

RRRRRRRRRRREEEEEEEEEESSSSSSSSSSSSSSSTTTTTTTTTTTT

Interlude(2x)
G-----------------------------------------------|
D-----------------------------------------------|
A---------------333-----------------------------|
D-----777-------------------333---------555-----|

Start when your 2nd Vocalist sings
G-----------------------------------------------|
D-----------------------------------------------|
A-------------333333----------------------------|
D-77777---------------------3333---------5555---|

G----------------------|
D----------------------|
A----------------------|
D------7---------------|


Tangkalikin ang THE SCENE OF MORON:
       James Paul "Epoy" Tunan
       Chris Jhon Bert "CJ" Daiz
       George "Tata" Cenabre
       Aaron Allan "Lan" Aguila
       Eric Norman "Pab" Pablo

Tabbed by Herofbodom

            
            
Suggest correction
Creating personal tab
Creating personal tab
You can edit any tab online and save it as your Personal.

You can edit, replace or remove any tab part or add personal notes – all changes will be seen only by you.

Personal tabs can be accessed anytime from any device, even offline.
Learn more »
Give kudos to tab author, rate the tab!
1 2 3 4 5
comments
print report bad tab
guest
Wanna post a correction for this tab? Suggest correction