Oops, an error
Loading. Please wait.

There Could Be Nothing After This tab

version 2
version 2

Whole song

Interactive

5,066 views 1 this week
no commentswrite comment
1 2 3 4 5
x 5
add to favorites
×
Save as Personal and add changes to this tab that will be seen only by you. Learn more ›
×
You can save this tab as Personal to edit and correct it or add notes. All changes will be seen only by you. Learn more »
launch autoscroll
font size
0
reset
how to read this tab
guitar tuner
edit
Autoscroll
slow
fast
+/-
esc
set tempo
stop
Yeah.

Drop D
/ or \ - slide


Intro
Guitar 1
|-----------------------------|----------------------------|
|-----------------------------|----------------------------|
|-14-------10------12---------|-14-------10------9---------|
|-x--(x16)-x--(x8)-x--(x8)----|-x--(x16)-x--(x8)-x-(x8)----| x2
|-12-------8-------10---------|-12-------8-------7---------|
|-----------------------------|----------------------------|

Guitar 2
|-----------------------------|----------------------------|
|-----------------------------|----------------------------|
|-14-------10------12---------|-14-------10------9---------|
|-x--(x16)-x--(x8)-x--(x8)----|-x--(x16)-x--(x8)-x-(x8)----| x2
|-12-------8-------8----------|-12-------8-------8---------|
|-----------------------------|----------------------------|

On both guitars, second time around, last chord, there is a bend.  I hope you understand that. : )



Verse
Guitar 1
|-------------------------------------|------------------------------|
|-------------------------------------|------------------------------|
|-------------------------------------|------------------------------|
|/12\10---10-----9------5------7------|-/12\10--10-----11-----9------|
|-------8-x-(x3)-x-(x3)-x-(x3)-x-(x3)-|-------8-x-(x3)-x-(x3)-x-(x8)-|
|---------8------7------3------5------|---------8------9------7------|
(Not 100% sure about the notes, the chords I'm 100% sure.)

Guitar 2
|----------------------------|
|----------------------------|
|----------------------------|
|-0---------5--------5-------|   x2
|-0-(x16)---5-(x8)---3-(x8)--|
|-0---------5----------------|



Then it is just drums and bass.


Guitar 1 & 2
|------------|
|------------|
|------------|
|-*FEEDBACK*-|
|------------|
|------------|




Guitar 1
|--------------------------|------------------------|
|--------------------------|------------------------|
|-14-------10------12------|14------10------9-------|
|-x--(x16)-x--(x8)-x--(x8)-|x-(x16)-x--(x8)-x-(x8)--|
|-12-------8-------10------|12------8-------7-------|
|--------------------------|------------------------|



Guitar 2
|-----------------------|------------------------|
|-----------------------|------------------------|
|9-------2------5-------|-9-------19------17-----|
|x-(x16)-x-(x8)-x-(x8)--|-x-(x16)-x--(x8)-x--(x8)|
|7-------0------3-------|-7-------17------15-----|
|-----------------------|------------------------|




Chorus
|-----------------------|
|-----------------------|
|-----------------------|
|-8-------7------5------|   x4
|-8-(x16)-7-(x8)-5-(x8)-|
|-8-------7------5------|
Hey, I'm young, this was all I could make out of the mess of a chorus. : (


Next Part has just drums and then


Both Guitars I THINK this parts pretty cool anyway.
|-----------------------------|
|-----------------------------|
|-----------------------------|
|-00-8\--00-7\--00-8--7-8-7---|  x2
|-00-8\--00-7\--00-8--7-8-7---| 
|-00-8\--00-7\--00-8--7-8-7---|

Once again
|-----------------------------|
|-----------------------------|
|-----------------------------|
|-00-8\--00-7\--00-8--7-8-7---|  x4
|-00-8\--00-7\--00-8--7-8-7---|
|-00-8\--00-7\--00-8--7-8-7---|


Both Guitars
|-----|
|-----|
|-----|
|--5--|
|--5--|
|--5--|
Let it ring.

Guitar 1
|-----------------------------------------------|
|-----------------------------------------------|
|-9-------10-----12-----10-----12---14----------|
|-x-(x16)-x-(x8)-x-(x8)-x-(x8)-x----x--(x32)----| x4
|-7-------8------10-----8------10---12----------|
|-----------------------------------------------|

I could not figure out Guitar 2's part.



Play the intro again.




And that's it!



Any questions, AIM me at JakeyWakey008
It's a long story. : )

            
            
Suggest correction
Creating personal tab
Creating personal tab
You can edit any tab online and save it as your Personal.

You can edit, replace or remove any tab part or add personal notes – all changes will be seen only by you.

Personal tabs can be accessed anytime from any device, even offline.
Learn more »
comments
print report bad tab
guest
Wanna post a correction for this tab? Suggest correction