Oops, an error
Loading. Please wait.

Theyre Only Chasing Safety album bass

3,230 views 1 this week
no commentswrite comment
1 2 3 4 5
x 3
add to favorites
×
Save as Personal and add changes to this tab that will be seen only by you. Learn more ›
×
You can save this tab as Personal to edit and correct it or add notes. All changes will be seen only by you. Learn more »
launch autoscroll
font size
0
reset
guitar tuner
edit
Autoscroll
slow
fast
+/-
esc
set tempo
stop
 Underoath
 They're Only Chasing Safety

 Tunning:Drop D

 1.Young And Aspiring
 2.A Boy Brushed Red… Living in Black and White(Unregisterd)
 3.The Impact Of Reason
 4.Reinventing Your Exit(Vinnie punkrocker3o2@msn.com)
 5.The Blue Note(None)
 6.Its Dangerous Business Walking Out Your Front Door(francisonfire)
 7.Down, Set, Go(squish_man24@hotmail.com )
 8.I Don't Feel Very Receptive Today(cghockey00039)
 9.I'm Content With Losing(Unregistered)
 10.Some Will Seek Forgiveness, Others Escape
 11.I've Got Ten Friends and a Crowbar That Say You Ain't Gonna Do Jack(Profesorhawk)

 -----------------------------------------------------------------------

 1.Young And Aspiring

 Intro (0.12) "So lets not even try...you're right"
G|---------------------------------------------------------------------------|
D|---------------------------------------------------------------------------|
A|---7-77-777----77-----2222222222222222-0000000000000000--------------------|
D|22----------22----0~-------------------------------------------------------|

G|---------------------------------------------------------------------------------------------|
D|---------------------------------------------------------------------------------------------|
A|---7-77-777----77-----2222222222222222-0000000000000000-2222222222222222-0000000000000000----|
D|22----------22----0~-------------------------------------------------------------------------|

 Verse x2 "hold your breath....bottle it up"
G|--------------------------------------------------|
D|--------------------------------------------------|
A|----------10--------------------------------------|
D|2~----10-------7~---------------------------------|

G|---------------------------------------------------------------------------|
D|---------------------------------------------------------------------------|
A|-----------------3333333333333333------------------------------------------|
D|2222222222222222------------------777-777-777-777-4444444455555555-10~-----|

 Chorus x2 "Consequence,it's our need in times like these"
G|-------------------------------------------------------------------------------------------|
D|-------------------------------------------------------------------------------------------|
A|--------------------------------------------------------------------5555555555555555-------|
D|2222222222222222-10101010101010101010101010101010-7777777777777777-------------------------|

 Post-Chorus
G|---------------------------------------------------------------------------|
D|---------------------------------------------------------------------------|
A|---------------------------------------------------------------------------|
D|222--------222-222-222--\17------222-222-2-2-2-2-2-2-----------------------|

 Verse "I fear that I am just an end"
G|-------------------------------------------9--------------------|
D|-------------------7-------------------------9------------------|
A|3-3-33-33-3-3--5-5---7/55--3-3-33-33-3-3/7-----7--10-9-5--------|
D|----------------------------------------------------------------|

G|---------------------------------------------------------------------------|
D|---------------------------------------------------------------------------|
A|3-3-33-33-3-3--5-5-55-55-5-5-3-3-33-3-3--7-7-7-5-5-5-----------------------|
D|---------------------------------------------------------------------------|

 Post-Chorus x2
G|---------------------------------------------------------------------------|
D|---------------------------------------------------------------------------|
A|---------------------------------------------------------------------------|
D|2~----10~----7~------------------------------------------------------------|
 x1 "Running in Circles I can't forget how many times"
G|---------------------------------------------------------------------------|
D|---------------------------------------------------------------------------|
A|-----------------3333333333333333------------------------------------------|
D|2222222222222222------------------777-777-777-777-4444444455555555---------|

 Chorus x2 "Consequence,it's our need in times like these"
G|-------------------------------------------------------------------------------------------|
D|-------------------------------------------------------------------------------------------|
A|--------------------------------------------------------------------5555555555555555-------|
D|2222222222222222-10101010101010101010101010101010-7777777777777777-------------------------|
 x1
G|---------------------------------------------------------------------------|
D|---------------------------------------------------------------------------|
A|7777777777777777-3333333333333333-0000000000000000-5555555555555555--------|
D|---------------------------------------------------------------------------|

 outro "This is my panic....this is my call to arms"
G|---------------------------------------------------------------------------|
D|---------------------------------------------------------------------------|
A|---------------------------------------------------------------------------|
D|222-----222-222-222-222-----222-222-222------------------------------------|


 2.A Boy Brushed Red...Living In Black And White(Unregisterd)

 After Guitar intro
G|----------------------------------|
D|----------------------------------|
A|-4444-44444-4444-0000-00000-0000--|
D|----------------------------------|

G|------------------------------------------|
D|------------------------------------------|
A|------------------------------------------|
D|-9999--99999--9999 -4444-44444-4444-------|


 Verse 3X
G|------------------------------------------------------------------|
D|------------------------------------------------------------------|
A|-444444444444444-000000000000000-222222222222222------------------|
D|-------------------------------------------------4444444444444444-|

"Here is where we both go wrong"
G|-------------------------------------|
D|-------------------------------------|
A|-4444-44444-4444-0000-00000-0000-----|
D|-------------------------------------|

G|--------------------------------------------|
D|--------------------------------------------|
A|--------------------------------------------|
D|-9999--99999--9999-4444-44444-4444----------|

"So tie me up..."
G|-------------------------------------|
D|-------------------------------------|
A|-4444-44444-4444-0000-00000-0000-----|
D|-------------------------------------|

G|--------------------------------------------|
D|--------------------------------------------|
A|--------------------------------------------|
D|-9999--99999--9999-4444-44444-4444----------|


 PreChorus (2X)
G|------------------------------------------------------------------|
D|------------------------------------------------------------------|
A|-0-0-0000-000-000-0-0-000-0-000-000-------------------------------|
D-----------------------------------4-4-444-4-444-444-44-4444-44444-|

G|-------------------------------------------------------------|
D|-------------------------------------------------------------|
A|-0-0-0000-000-000-0-0-000-0-000-000--------------------------|
D|------------------------------------4-4-44-4-4-4-4/6666666---|


 Chorus
G|-------------------------------------|
D|-------------------------------------|
A|-4-4-444-0-00-000---------0-0000000--|
D|------------------4-4-444------------|

G|-------------------------------------|
D|-------------------------------------|
A|-4-4-444-0-00-000- -------0-0000000--|
D|------------------4-4-444------------|


 Chorus Part 2 (Actually is the keyboard part arranged for guitar)
G|-------------------------------------------------|
D|-- ----------------------------------------------|
A|--9--9--9-9-9-12-12-121212-15-15-151515-7-7-777--|
D|-------------------------------------------------|

G|-------------------------------------------------|
D|-------------------------------------------------|
A|--9--9--9-9-9-12-12-121212-11-11-111111-7-7-777--|
D|-------------------------------------------------|


 Verse 2
G|--[well look------------------------------------------------------|
D|---who's dying----------------------------------------------------|
A|----now]--------000000000000000-222222222222222-------------------|
D|------------------------------------------------4444444444444444--|

"It doesn't matter what you say..."
G|------------------------------------------------------------------|
D|------------------------------------------------------------------|
A|-444444444444444-000000000000000-222222222222222------------------|
D|-------------------------------------------------4444444444444444-|


 Pre Chorus 2 (2X)
G|------------------------------------------------------------------|
D|------------------------------------------------------------------|
A|-0-0-0000-000-000-0-0-000-0-000-000-------------------------------|
D|-----------------------------------4-4-444-4-444-444-44-444444444-|

G|---------------------------------------------------------------|
D|---------------------------------------------------------------|
A|-0-0-0000-000-000-0-0-000-0-000-000----------------------------|
D|------------------------------------4-4-44-4-4-4-4/6666666-----|


 Chorus 2 (Same as guitar one)
G|--------------------------------------|
D|--------------------------------------|
A|-4-4-444-0-00-000---------0-00-0000---|
D|------------------4-4-444-------------|

G|--------------------------------------|
D|--------------------------------------|
A|-4-4-444-0-00-000---------0-0000000---|
D|------------------4-4-444-------------|

G|--------------------------------------|
D|--------------------------------------|
A|-4-4-444-0-00-000---------0-00-0000---|
D|------------------4-4-444-------------|

G|--------------------------------------|
D|--------------------------------------|
A|-4-4-444-0-00-000---------0-0000000---|
D|------------------4-4-444-------------|


 Breakdown

"Don't Shake, I hate to see you TREMBLE.."
G|-----------------------|-----------------------|
D|-----------------------|-----------------------|
A|-----------------------|-----------------------|
D|-7777x-777x-4444x-444x-|--77777777--44444444---|
           X2                       X2

 Quiet Part (Clean)
G|6~---~---~---~---~---~---~-----------------------------------------|
D|-~---~---~---~---~---~---------------------------------------------|
A|-4~---0~---~---0~---4~---0~---~------------------------------------|
D|-----------4~------------------4~----------------------------------|


 Last Chorus (listen for initial octaves fill here)
G|-------------------------------------|
D|-------------------------------------|
A|-4-4-444-0-00-000---------0-00-0000--|
D|------------------4-4-444------------|

G|------------------------------------|
D|------------------------------------|
A|-4-4-444-0-00-000--------0-00-0000--|
D|------------------4-4-444-----------|

G|-------------------------------------|
D|-------------------------------------|
A|-4-4-444-0-00-000---------0-00-0000--|
D|------------------4-4-444------------|

G|------------------------------------|
D|------------------------------------|
A|-4-4-444-0-00-000--------0-00-0000--|
D|------------------4-4-444-----------|

 3.The Impact of reason

  Intro(0.06)
G|---------------------------------------------------------------------------|
D|---------------------------------------------------------------------------|
A|0000000000000000-----------------------------------------------------------|
D|-----------------5555555555555555------------------------------------------|

G|---------------------------------------------------------------------------|
D|-------------------------4-2-4---------------------------------------------|
A|222222222222222222222222-------0000000000000000----------------------------|
D|------------------------------------------------5555555555555555-----------|

 Verse x2 "Prop open the door I can actually see my breath tonight"
G|-------------------------------------------------------------------------------------------|
D|-------------------------------------------------------------------------------------------|
A|22222222222222222222222222222222-2222222222222222-0000000000000000-------------------------|
D|-------------------------------------------------------------------5555555555555555--------|

 Post-Chorus
G|---------------------------------------------------------------------------|
D|---------------------------------------------------------------------------|
A|2-222-2-222-2-222-2-222-2--2222--------------------------------------------|
D|--------------------------------2222-4444----------------------------------|

 Chorus x2 "I'm not too sure that I want it to br this way"
G|------------------------------------------------------------------|
D|------------------------------------------------------------------|
A|------------------------------------------------------------------|
D|5-55-5-55-57-77-7-77-79-99-9-99-4--44-4---------------------------|
 x2
G|---------------------------------------------------------------------------|
D|---------------------------------------------------------------------------|
A|---------------------------------------------------------------------------|
D|5555555555-77777777777-9999999999-4444444444-------------------------------|

 Verse "I Think it's time to turn around"
G|---------------------------------------------------------------------------|
D|-------------------------4-2-4---------------------------------------------|
A|222222222222222222222222-------0000000000000000----------------------------|
D|------------------------------------------------5555555555555555-----------|

G|---------------------------------------------------------------------------|
D|-------------------------4-5-4---------------------------------------------|
A|222222222222222222222222-------0000000000000000----------------------------|
D|------------------------------------------------5555555555555555-----------|

 Bridge x3
G|-------------------------------------|
D|-------------------------------------|
A|2~--0~-------------------------------|
D|--------2~--5~-----------------------|
 x2
G|---------------------------------------------------------------------------|
D|---------------------------------------------------------------------------|
A|22222222-00000000----------------------------------------------------------|
D|------------------22222222-55555555----------------------------------------|


 Chorus x1 "No lights,no signs,I'm at a loss for words"
G|------------------------------------------------------------------|
D|------------------------------------------------------------------|
A|------------------------------------------------------------------|
D|5-55-5-55-57-77-7-77-79-99-9-99-4--44-4---------------------------|
 x1
G|---------------------------------------------------------------------------|
D|---------------------------------------------------------------------------|
A|---------------------------------------------------------------------------|
D|5555555555-77777777777-9999999999-4444444444-------------------------------|
 x2
G|------------------------------------------------------------------|
D|------------------------------------------------------------------|
A|------------------------------------------------------------------|
D|5-55-5-55-57-77-7-77-79-99-9-99-4--44-4---------------------------|

 End off
G|----------------------|
D|----------------------|
A|----------------------|
D|5~--------------------|

 4.Reinventing Your Exit(Vinnie punkrocker3o2@msn.com)

 Intro
G|--------------------------------------------------||
D|--------------------------------------------------||
A|--------------------------------------------------||
D|-777777777-101010101010101010-33333333-555555555--||

"INVINCIBLE" X2
G|---------------------------------------------||
D|---------------------------------------------||
A|---------------------------------------------||
D|-7-777-77--10-101010-1010-3-333-33-5-555-55--||

 Verse  X2
G|------------------------------------||
D|------------------------------------||
A|------------------------------------||
D|-7-7--7~-10-10--10~-3-3--3~-5-5--5~-||

 Bridge "around and round"  X2
G|----------------------------------------||
D|----------------------------------------||
A|----------------------------------------||
D|-777777777-333333333-55555555-22222222--||

"we all want to be"
G|-------------------------------------||
D|-------------------------------------||
A|-------------------------------------||
D|-3333333333333333-77777777-55555555--||

"Right Now"
G|-----------------------------------||
D|-----------------------------------||
A|-----------------------------------||
D|-3--3--3333333-777777777-55555555--||

 Little Break

 Chorus X4
G|--------------------------------------------------||
D|--------------------------------------------------||
A|--------------------------------------------------||
D|-777777777-101010101010101010-33333333-555555555--||

 Repeat Verse

 Repeat Bridge

 Repeat Chorus

2:49 "reaching Out"  X2
G|-------------------------------------||
D|-------------------------------------||
A|-------------------------------------||
D|-7-7-7--7-7-7--12/3---3-3-3---5-5-5--||

3:06
G|-------||
D|-------||
A|-------||
D|-12/R--||

3:12  X2
G|---------------------------------||
D|---------------------------------||
A|---------------------------------||
D|-7-7-7--10-10-10--5-5-5--3-3-3---||

3:42  X2
G|--------------------------------------------------||
D|--------------------------------------------------||
A|--------------------------------------------------||
D|-777777777-101010101010101010-33333333-555555555--||

 Repeat Chorus


 5.The Blue Note(None)

 6.Its Dangerous Business Walking Out Your Front Door(francisonfire)

 Intro (00:02)
G|-------------------------------------------|
D|-------------------------------------------|
A|-------------------------------------------|
D|-7777--7777--3333--000000555555------------|

 Verse (00:16)
G|------------------------------|
D|------------------------------|
A|------------------------------|             x2
D|-7-10h5--------3-10h5---------|

 Rest; Restart at 1:13
G|------------------------------|
D|------------------------------|
A|------------------------------|             x2
D|-7-10h5--------3-10h5---------|

 Chorus (01:41)
G|----------------------------------|
D|----------------------------------|
A|----------------------------------|        x4
D|-777777777777-333333-555555-------|

 Part before bridge (02:10)
G|----------------------------------|
D|----------------------------------|
A|----------------------------------|           x2
D|-222222-333333-777777-555555------|

G|----------------------------------|
D|----------------------------------|
A|----------------------------------|
D|-2~~------------------------------|

(Rest)

 Bridge (02:52)
G|-------------------------------------------|
D|-------------------------------------------|
A|-------------------------------------------|       x2
D|-7777--7777--3333--000000555555------------|

 Last Chorus (03:21)
G|-------------------------------------|
D|-------------------------------------|
A|-------------------------------------|           x4
D|-777777777777-333333-555555----------|

 End (3:49)
G|---------------------|
D|---------------------|
A|---------------------|
D|--7~~~---------------|

 7.Down, Set, Go(squish_man24@hotmail.com )

 After Guitar Intro:

G|--|
D|--|
A|--|
D|2~|

 Intro + Verse:

G|---------------------------------|
D|---------------------------------|   6x
A|---------------------------------|
D|4444444000000000000000022222222--|

 Pause 1:

G|--|
D|--|
A|5~|
D|--|

 Chorus:

G|-----------------------------------------------------------------|
D|-----------------------------------------------------------------|       2x
A|-----------------------------------------------222222222222222---|
D|44444444444444477777777777777770000000000000000---------------222|

 Post Chorus:

G|--|
D|--|
A|--|
D|2~|

 Pre Verse + Verse 2:

G|---------------------------------|
D|---------------------------------|   6x
A|---------------------------------|
D|4444444000000000000000022222222--|
Pause 2:

G|--|
D|--|
A|--|
D|0~|

 Chorus:

G|-----------------------------------------------------------------|
D|-----------------------------------------------------------------|       2x
A|-----------------------------------------------222222222222222---|
D|44444444444444477777777777777770000000000000000---------------222|

 Bridge Intro:

 Chorus:

G|--------------------------------------------------|
D|--------------------------------------------------|
A|--------------------------------------------------|
D|0000000000000000000000000000000000000000000000000~|

 Bass doesn't play for clean part, and comes back in with "Whatever I Say Goes!" playing:

G|--------------------------------------------------|
D|--------------------------------------------------|    2x
A|--------------------------------------------------|
D|444444444444444444444444000000000000222222222222--|

"You're Not Here With Me" Outro:

G|--------------------------------------------------|
D|--------------------------------------------------|    2x
A|--------------------------------------------------|
D|4444444-4-4-4444444-4-4-0000000-0-0-2222222-2-2---|

 8.I Don't Feel Very Receptive Today(cghockey00039)

  Intro
G|--------------------------------------------|
D|--------------------------------------------|    X4
A|--------------------------------------------|
D|8-8-8-8-8-8-8-8-8-8-8-8-8-8-8-8-8-0-0-0-0-0-|


G|-----------------------------------|
D|-----------------------------------|   X4
A|-----------------------------------|
D|-0-0-0-0-0-0-----------------------|

G|--------------------------------------------------|
D|--------------------------------------------------|
A|--------------------------------------------------|
D|-8-8-8-8-8-8-8-8-8-8-8-8--5-5-5-5-5-5-5-5-5-5-5-5-|

G|--------------------------------------------------------------|
D|--------------------------------------------------------------|   X2
A|--------------------------------------------------------------|
D|-0-0-0-0-0-0-0-0-0-0-0-0--10-10-10-10-10-10-10-10-10-10-10-10-|

G|----------------------------------|
D|----------------------------------|
A|-8--8/10-10-10-10/7-7-7-7-7-7-7-7-|
D|----------------------------------|

G|----------------------------------|
D|-----------(20-times)-------------|   x2
A|--------12------------------------|
D|-0-0-0----------------------------|

G|----------------------------------|
D|----------------------------------|
A|----------------------------------|
D|-0-0-0----------------------------|

G|----------------------------------|
D|-----------(20-times)-------------|    x2
A|--------12------------------------|
D|-0-0-0----------------------------|

G|----------------------------------|
D|---(15 times)----(5 times)--------|
A|-12------------10-----------------|
D|----------------------------------|

G|------------------------------------------------------|
D|------------------------------------------------------|
A|-12-----------13----------17-------------15-----------|
D|------------------------------------------------------|

G|-----------------------------------------|
D|-----------------------------------------|    X4
A|-5-5/-8--8--8--8--8--8--8--8--8--8--8--8-|
D|-----------------------------------------|


G|--------------------------------------------------------------|
D|--------------------------------------------------------------|
A|--------------12-x-12-x-12-x-12-x-12-x-12-x-12-x-12-x-12-x-12-|
D|-0-0-0-0-0-0--------------------------------------------------|


G|----------------------------------|
D|----------------------------------|   X4
A|----------------------------------|
D|-5-5-5-5--8-8-8-8-----------------|

 9.I'm Content With Losing(Unregistered)

      Intro (0:01)  "like I said!"
G|------------------------------------------------------------------------------------|
D|------------------------------------------------------------------------------------|
A|-0-00-00000-0000-0-00-00000-00000/4-44-44444-4444-2-22-22222-22222-222--------------|
D|------------------------------------------------------------------------------------|


     Intro (continued)
G|------------------------------------------------------------------------------------|
D|------------------------------------------------------------------------------------|
A|-0-00-00000-00000-0-00-00000-77-44-0h4-44-44444-44444-2-22-22222-22222--------------|
D|------------------------------------------------------------------------------------|

    (i dont know if this is the intro or verse...)
    Into/verse?    "How does it feel to be on the receiving end..."
G|------------------------------------------------------------------------------------|
D|------------------------------------------------------------------------------------|
A|-000000000000000000000--4444444444444-2222222222222---------------------------------|
D|------------------------------------------------------------------------------------|
(let the last note ring)

     Chorus   "i'm half way there....and its all on me!"
G|------------------------------------------------------------------------------------|
D|------------------------------------------------------------------------------------|
A|-44444444444444-22222222222222-0000000000000-222222222222222------------------------|
D|------------------------------------------------------------------------------------|


     Chorus (continued) "THIS IS THE WAY ITS GOT TO BE!"
G|------------------------------------------------------------------------------------|
D|------------------------------------------------------------------------------------|
A|-444444444444444-22222222-2-2-0000000000000000-2222222222---------------------------|
D|------------------------------------------------------------------------------------|


     Post-Chorus
G|------------------------------------------------------------------------------------|
D|------------------------------------------------------------------------------------|
A|-0-00------4-44-22-2h4p2--0-00------4444-(2)----------------------------------------|
D|------4-44---------------------4-44-------------------------------------------------|

     Verse   "I'll fantasize of being left..."
G|------------------------------------------------------------------------------------|
D|------------------------------------------------------------------------------------|
A|-0000000000000000000000000000-444444444444444-22222222222222------------------------|
D|------------------------------------------------------------------------------------|

     Verse (continued)
G|------------------------------------------------------------------------------------|
D|------------------------------------------------------------------------------------|
A|-00000000000000000000000000000/444444444444444-22222222222222-----------------------|
D|------------------------------------------------------------------------------------|

     Bridge/breakdown?  "this is the moment that we all live for...are you ready?"
G|------------------------------------------------------------------------------------|
D|------------------------------------------------------------------------------------|
A|-0000000000000-222222222222222-44444444444444-222222222222-15\----------------------|
D|------------------------------------------------------------------------------------|

   Chorus   "i'm half way there....and its all on me!"
G|------------------------------------------------------------------------------------|
D|------------------------------------------------------------------------------------|
A|-44444444444444-22222222222222-0000000000000-222222222222222------------------------|
D|------------------------------------------------------------------------------------|


     Chorus (continued) "THIS IS THE WAY ITS GOT TO BE!"
G|------------------------------------------------------------------------------------|
D|------------------------------------------------------------------------------------|
A|-444444444444444-22222222-2-2-0000000000000000-2222222222---------------------------|
D|------------------------------------------------------------------------------------|


     Post-Chorus
G|------------------------------------------------------------------------------------|
D|------------------------------------------------------------------------------------|
A|-0-00------4-44-22-2h4p2--0-00------4444-2222---------------------------------------|
D|------4-44---------------------4-44-------------------------------------------------|

     (i think this is the bridge)
     Bridge      "you cant see past my waving hands!"
G|------------------------------------------------------------------------------------|
D|------------------------------------------------------------------------------------|X2
A|-0-00000---------4-44444-2-22-222---------------------------------------------------|
D|---------4-44444--------------------------------------------------------------------|


     Breakdown
G|------------------------------------------------------------------------------------|
D|------------------------------------------------------------------------------------|X12
A|-(0)----------------------4444444---------------------------------------------------|
D|------------------------------------------------------------------------------------|

  10.Some Will Seek Forgiveness, Others Escape
  (Note:The bass does not come until 2.45)
 Outro (2.45)
G|-----------------------------------------------|
D|-----------------------------------------------|
A|-----------------------------------------------|
D|4~----9~------7~-------------------------------|

  x4 (2.58)
G|---------------------------------------------------------------------------|
D|---------------------------------------------------------------------------|
A|---------------------------------------------------------------------------|
D|44444444-55555555-99999999-77777777----------------------------------------|

  (3.42)                                  (4.09)
G|--------------------------------------|-------------------------------------|
D|--------------------------------------|-------------------------------------|
A|--------------------------------------|-------------------------------------|
D|4~------------------------------------|9~---7~------------------------------|


 11.I've Got Ten Friends and a Crowbar That Say You Ain't Gonna Do Jack(Profesorhawk)

 0.23 - 0.44
G|---------------------------------------------------------------------------|
D|--------------------------2-2-2-2-2-2-5-5-5-5-5-5--5-5-5-5-7-7-7-7---------|
A|-2-2-2-2-2-2-2-2-2-2-5-5-5-------------------------------------------------|
E|---------------------------------------------------------------------------|

G|------------------------------9-9-9-9-9-9-12-12-12-12-12-12----------------|
D|-9-9-9-9-9-9-9-9-9-9-12-12-12----------------------------------------------|
A|---------------------------------------------------------------------------|
E|---------------------------------------------------------------------------|

G|-12-12-12-12-14-14-14-14---------------------------------------------------|
D|---------------------------------------------------------------------------|
A|---------------------------------------------------------------------------|
E|---------------------------------------------------------------------------|

Verse

0.45 - 1.28
G|-19~---------16------------------------------------------------------------|
D|-----16~-19~----17-16-14~--------------------------------------------------|
A|---------------------------------------------------------------------------|
E|---------------------------------------------------------------------------|

Pre-Chorus

1.29 - 1.34
G|---------------------------------------------------------------------------|
D|-5-5-5-5-5-5-5-5--5-5--7-7-7-7-7-7-7-7--7-7--------------------------------|
A|---------------------------------------------------------------------------|
E|---------------------------------------------------------------------------|

Chorus

1.35 - 1.56
G|---------------------------------------------------------------------------|
D|---------------------------2-2-2-2-2-2-5-5-5-5-5-5--5-5-5-5-7-7-7-7--------|
A|-2-2-2-2-2-2-2-2-2-2-5-5-5-------------------------------------------------|
E|---------------------------------------------------------------------------|

G|------------------------------9-9-9-9-9-9-12-12-12-12-12-12----------------|
D|-9-9-9-9-9-9-9-9-9-9-12-12-12----------------------------------------------|
A|---------------------------------------------------------------------------|
E|---------------------------------------------------------------------------|

G|-12-12-12-12-14-14-14-14---------------------------------------------------|
D|---------------------------------------------------------------------------|
A|---------------------------------------------------------------------------|
E|---------------------------------------------------------------------------|

Post-Chorus

1.57 - 2.06
G|---------------------------------------------------------------------------|
D|---------------------------------------------------------------------------|
A|-2-2-2-2-2--2-2--2-2-2-2-2--2-2--2-2-2-2-2--2-2--2-2-2-2-2--2-2------------|
E|---------------------------------------------------------------------------|

2.07 - 2.12
G|---------------------------------------------------------------------------|
D|-------------------------2-2-2-2-2-2-2-2-5-5-5-5-7/2-----------------------|
A|-2-2-2-2-2-2-2-2-5-5-5-5-----------------------------2/7-------------------|
E|---------------------------------------------------------------------------|

2.13 - 2.23
G|---------------------------------------------------------------------------|
D|---------------------------------------------------------------------------|
A|-2-2-2-2-2--2-2--2-2-2-2-2--2-2--2-2-2-2-2--2-2--2-2-2-2-2--2-2------------|
E|---------------------------------------------------------------------------|

Breakdown

2.24 - 2.45
G|---------------------------------------------------------------------------|
D|---------------------------------------------------------------------------|
A|--------------5--5-7--4-5--------------------------------------------------|
E|-3~--3-5-7--7--------------------------------------------------------------|

2.46 - 3.27
G|---------------------------------------------------------------------------|
D|---------------------------------------------------------------------------|
A|-----------------7-7-7-5-5-5-4-4-----------------7-7-7-5-5-5-4-4-----------|
E|-3-3-3-3-3-3-3-3-----------------7-7-7-7-7-7-7-7---------------------------|


G|---------------------------------------------------------------------------|
D|---------------------------------------------------------------------------|
A|-----------------9-9-9-9-9-9-9-9-------------------------------------------|
E|-7-7-7-7-7-7-7-7-----------------------------------------------------------|

Chorus

3.32 - 3.54
G|---------------------------------------------------------------------------|
D|---------------------------2-2-2-2-2-2-5-5-5-5-5-5--5-5-5-5-7-7-7-7--------|
A|-2-2-2-2-2-2-2-2-2-2-5-5-5-------------------------------------------------|
E|---------------------------------------------------------------------------|

G|------------------------------9-9-9-9-9-9-12-12-12-12-12-12----------------|
D|-9-9-9-9-9-9-9-9-9-9-12-12-12----------------------------------------------|
A|---------------------------------------------------------------------------|
E|---------------------------------------------------------------------------|

G|-12-12-12-12-14-14-14-14---------------------------------------------------|
D|---------------------------------------------------------------------------|
A|---------------------------------------------------------------------------|
E|---------------------------------------------------------------------------|

3.55 - 4.15
G|---------------------------------------------------------------------------|
D|---------------------------2-2-2-2-2-2-------------------------------------|
A|-2-2-2-2-2-2-2-2-2-2-5-5-5-------------------------------------------------|
E|---------------------------------------3-3-3-3-3-3-3-3-3--3-3-3------------|

G|---------------------------------------------------------------------------|
D|---------------------------------------------------------------------------|
A|---------------------------------------------------------------------------|
E|-3-3-3-3-5-5-5-5-----------------------------------------------------------|

G|------------------------------9-9-9-9-9-9----------------------------------|
D|-9-9-9-9-9-9-9-9-9-9-12-12-12-------------5-5-5-5-5-5-5-5-5--5-5-5---------|
A|---------------------------------------------------------------------------|
E|---------------------------------------------------------------------------|

G|---------------------------------------------------------------------------|
D|-5-5-5-5--7-7-7-7----------------------------------------------------------|
A|---------------------------------------------------------------------------|
E|---------------------------------------------------------------------------|

Post-Chorus

4.16 - 4.32
G|---------------------------------------------------------------------------|
D|---------------------------------------------------------------------------|
A|-2-2--2-2-2--2-2--2-2--2-2-2----2-2--2-2-2--2-2--2-2--2-2-2--2-2-----------|
E|-----------------------------3~--------------------------------------------|

G|---------------------------------------------------------------------------|
D|---------------------------------------------------------------------------|
A|-2-2--2-2-2--2-2--2-2--2-2-2--2-2------------------------------------------|
E|---------------------------------------------------------------------------|

Outro

4.33 - 5.00
G|---------------------------------------------------------------------------|
D|-12~--------9-----------12~--------9---------------------------------------|
A|-----9~-12~---10-9-7--------9~-12~---10-9~~~~~~----------------------------|
E|---------------------------------------------------------------------------|

If There is any mistakes please place a comment or email me at
dustinvanwyk@yahoo.com or ny user on UG dvanwyk.
And also rate .thank you.
Also thanxs to those guys who tabbed in the songs, I gave you guys credit for your work 
dedication,you guys rock.

            
            
Suggest correction
Creating personal tab
Creating personal tab
You can edit any tab online and save it as your Personal.

You can edit, replace or remove any tab part or add personal notes – all changes will be seen only by you.

Personal tabs can be accessed anytime from any device, even offline.
Learn more »
Give kudos to tab author, rate the tab!
1 2 3 4 5
comments
print report bad tab
guest
You may want to rate the tab now too:
select rating
Wanna post a correction for this tab? Suggest correction