Oops, an error
Loading. Please wait.

Theyre Only Chasing Safety album tab

9,729 views 9 this week
8 commentsread comments
1 2 3 4 5
x 8
add to favorites
×
Save as Personal and add changes to this tab that will be seen only by you. Learn more ›
×
You can save this tab as Personal to edit and correct it or add notes. All changes will be seen only by you. Learn more »
launch autoscroll
font size
0
reset
how to read this tab
guitar tuner
edit
Autoscroll
slow
fast
+/-
esc
set tempo
stop
They’re Only Chasing Safety
UnderØath

Track Listing

01.	Young and Aspiring
02.	A Boy Brushed Red...Living in Black and White
03.	The Impact of Reason
04.	Reinventing Your Exit
05.	The Blue Note
06.	It's Dangerous Business Walking Out Your Front Door
07.	Down, Set, Go
08.	I Don't Feel Very Receptive Today
09.	I'm Content With Losing
10.	 Some Will Seek Forgiveness, Others Escape
***Special Edition***
11. I've Got 10 Friends and a Crowbar That Says You Ain't Gonna Do Jack (bonus track)
12. The 80's Song (bonus track)
13. You're So Intricate (bonus track)
14. SmicTague (bonus track)


----------------------------------------------------------------------------
                            Young and Aspiring
----------------------------------------------------------------------------
Tuning: Drop D

Intro
e|-------------------------------------------------|
B|-------------------------------------------------|
G|-----------9-9----------9-9-----------9-9---7----|
D|---22-0----x-x---22-0---x-x---22--0---x-x---x----|
A|---22-0----7-7---22-0---7-7---22--0---7-7---5----|
D|---22-0---------22--0---------22--0--------------|
“So lets not even…”

e|-------------------------------------------------|
B|-------------------------------------------------|
G|---12---11--7---9------12--11--7---9-------------|
D|----x---x---x---x-------x---x--x---x-------------|
A|---10---9---5---7------10---9--5---7-------------|
D|-------------------------------------------------|

Verse
~ hold notes/chords
e|-------------------------------------------------|
B|-------------------------------------------------|
G|-------------------------------------------------|
D|--------14~--------12~---------9~----------------|
A|--------14~--------10~---------7~----------------|
D|--------14~--------10~---------7~----------------|
“Hold your breath…”

Repeat some of these more than once
e|-------------------------------------------------|
B|-------------------------------------------------|
G|----9--------12--11---7-----12---11--7-----------|
D|----x---------x---x---0------x----x--0-----------|
A|----7--------10---9---5-----10----9--5-----------|
D|----------------------0--------------0-----------|

Chorus
e|-------------------------------------------------|
B|-------------------------------------------------|
G|------12------11----7---------12--11-7-----------|
D|-------x-------x----x----------x---x-x-----------|
A|------10-------9----5---------10---9-5-----------|
D|-------------------------------------------------|

e|-------------------------------------------------|
B|-------------------------------------------------|
G|-----12--11---16--14--16--14--16-14--16-14-------|
D|------x--x-----x---x---x---x---x--x---x--x-------|
A|-----10--9----14--12--14--12--14-12--14-12-------|
D|-------------------------------------------------|

Verse
e|-------------------------------------------------|
B|-------------------------------------------------|
G|-------------------------------------------------|
D|---222---222---222---222-----999-101010----------|
A|---222---222---222---222-----999-101010----------|
D|---222---222---222---222-----999-101010----------|
“This all needs a break…”

e|---------------------------------------------------|
B|---------------------------------------------------|
G|---9--11--9---11-12-11--7-9-12-11-7-9-12-11-7-9-14-|
D|---x---x--x---x---x--x--x-x--x-x--x-x-x---x-x-x-x--|
A|---7---9--7---9--10--9--5-7-10-9--5-7-10--9-5-7-12-|
D|---------------------------------------------------|

Play this a couple of times ending eventually on the first chord
e|--------------------------------------------------|
B|--------------------------------------------------|
G|----9-11-12---9-11-12-----------------------------|
D|----x--x---x--x-x---x-----------------------------|
A|----7--9--10--7—9--10-----------------------------|
D|--------------------------------------------------|

Chorus
e|--------------------------------------------------|
B|--------------------------------------------------|
G|------12------11----7---------12--11-7------------|
D|-------x-------x----x----------x---x-x------------|
A|------10-------9----5---------10---9-5------------|
D|--------------------------------------------------|

e|---------------------------------------------------|
B|---------------------------------------------------|
G|-----12--11---16--14--16--14--16-14--16-14---------|
D|------x--x-----x---x---x---x---x--x---x--x---------|
A|-----10--9----14--12--14--12--14-12--14-12---------|
D|---------------------------------------------------|

Outro
E------------------------------------------------|
B------------------------------------------------|
G-21--17--19--16-17-14-16--12-11-----------------|
D--x---x---x---x--x--x--x---x-x---2--------------|
A-19--15--17--14-15-12-14--10-9---2--------------|
D---------------------------------2--------------|


----------------------------------------------------------------------------
           A Boy Brushed Red… Living in Black and White
----------------------------------------------------------------------------

Tuning: Drop D

Intro

Guitar 1
Guitar 2 - silent
e|---------------------------------------------------------|
B|---------------------------------------------------------|
G|---------------------------------------------------------|
D|---------------------------------------------------------|
A|-------4----------0--------2-----------------------------|
D|---------------------------------------4-----------------|
PM…………………………………

Guitar 1
e|------------------------------------------------------|
B|------------------------------------------------------|
G|------------------------------------------------------|
D|------------------------------------------------------|
A|--------4--------0--------2---------------------------|
D|--------------------------------------4---------------|
PM…………………………………

Guitar 2
e|------------------------------------------------------|
B|------------------------------------------------------|
G|------------------------------------------------------|
D|----6---------6-------4-------------------------------|
A|----4---------0-------2-------4-----------------------|
D|------------------------------4-----------------------|
PM……………………………

Guitar 1
Guitar 2
e|-------------------------------------------------------|
B|-------------------------------------------------------|
G|-----6------------6----------4---------6---------------|
D|-----6------------6----------4---------6---------------|
A|-----4(strum)-----0(strum)---2(strum)--4---------------|
D|---------------------------------------4(strum)--------|

Verse

Guitar 1
e|-------------------------------------------------------------------------------------|
B|-------------------------------------------------------------------------------------|
G|-----66-----66---66----66---66-----66---66----66----44---44--44--44------------------|
D|---------66---------66---------66----------66----------44------44----66--------66----|
A|--44-----------44----------00-----------00-------22---------2--------------44----66--|
D|------------------------------------------------------------------------44---44------|
PM…………………………………………………………………………………………

Guitar 2 eventually comes in
e|---0/0---0---0----0/0---0----0/0---0---0----0---------------------------|
B|---4/5---7---9----4/5---9----4/5---7---9---11---------------------------|
G|------------------------------------------------------------------------|
D|------------------------------------------------------------------------|
A|------------------------------------------------------------------------|
D|------------------------------------------------------------------------|

Guitar 1                                          (play this 2x)
Guitar 2                                          (play this 2x)
e|-------------------------------------------------------------|
B|-------------------------------------------------------------|
G|--6---------6----------4---------6---------------------------|
D|--6---------6----------4---------6---------------------------|
A|--4(strum)--0(strum)---2(strum)--4---------------------------|
D|---------------------------------4(strum)--------------------|
  “Here is where we both go wrong …”

Pre Chorus

Guitar 1
e|-------------------------------------------------------------------|
B|-------------------------------------------------------------------|
G|---4----------6-------------4---------6------------4---------------|
D|---4----------6-------------4---------6------------4---------------|
A|---0(strum)---4-------------0(strum)--4------------2(strum)--------|
D|--------------4(strum)----------------4(strum)---------------------|

Guitar 2
e|---0/0---0---0----0/0---0----0/0---0---0----0-------------------|
B|---4/5---7---9----4/5---9----4/5---7---9---11-------------------|
G|----------------------------------------------------------------|
D|----------------------------------------------------------------|
A|----------------------------------------------------------------|
D|----------------------------------------------------------------|

Chorus

Guitar 1
Guitar 2
e|---------------------------------------------------------|
B|---------------------------------------------------------|
G|----6---------6----------6--------6----------------------|
D|----6---------6----------6--------6----------------------|
A|----4(strum)--0(strum)---4--------0(strum)---------------|
D|-------------------------4(strum)------------------------|

Verse 2

Guitar 1
Guitar 2- silent
e|-----------------------------------------------------------------|
B|-----------------------------------------------------------------|
G|-----------------------------------------------------------------|
D|---------------9-----------4----------6--------------------------|
A|----4----------0(strum)----0(strum)---4(strum)-------------------|
D|----4(strum)-----------------------------------------------------|
PM………………………………………………….
     “Well Look who’s dying now…”

Guitar 1
e|----------------------------------------------------------------|
B|----------------------------------------------------------------|
G|--6----------6----------4----------6----------------------------|
D|--6----------6----------4----------6----------------------------|
A|--4(strum)---0(strum)---2(strum)---4----------------------------|
D|-----------------------------------4(strum)---------------------|
  “It doesn’t matter what you say…”

Guitar 2 eventually comes in
e|---0/0---0---0----0/0---0----0/0---0---0----0---------------------|
B|---4/5---7---9----4/5---9----4/5---7---9---11---------------------|
G|------------------------------------------------------------------|
D|------------------------------------------------------------------|
A|------------------------------------------------------------------|
D|------------------------------------------------------------------|
“It doesn’t matter what you say…”

Pre Chorus

Guitar 1
Guitar 2
e|-------------------------------------------------------------------|
B|-------------------------------------------------------------------|
G|---4----------6-------------4---------6------------4---------------|
D|---4----------6-------------4---------6------------4---------------|
A|---0(strum)---4-------------0(strum)--4------------2(strum)--------|
D|--------------4(strum)----------------4(strum)---------------------|
   “ Your Lungs have failed…”
* On the quiet part it’s just these chords, hold them strumming once, no distortion

Ending chord

Guitar 1- do this quick
e|------------------------------------------|
B|------------------------------------------|
G|-----6--6------6--6-----------------------|
D|-----6--6------6--6-----------------------|
A|-----4--4------4--4-----------------------|
D|------------------------------------------|

Guitar 2
e|--------------------------|
B|--------------------------|
G|---------6~---------------|
D|---------6~---------------|
A|---------4~---------------|
E|--------------------------|


| /  slide up
| \  slide down
| h  hammer-on
| p  pull-off
| ~  vibrato
| +  harmonic
| x  Mute note
============================================================================

----------------------------------------------------------------------------
                  The Impact of Reason
----------------------------------------------------------------------------

Tuning: Drop D

Intro

Guitar 1
Guitar 2 is silent
e|------------------------------------------------------------------------|
B|------------------------------------------------------------------------|
G|----------0-------------0----------0-----------0------------------------|
D|-----4------4------4------4-----4-----4-----4-----4---------------------|
A|---2---2--------2----2--------2---2------2---2--------------------------|
D|------------------------------------------------------------------------|

Guitar 1 cont.
Guitar 2 joins in
e|-----------------------------------------------------------------------|
B|-----------------------------------------------------------------------|
G|------2b-----2b--------------------------------------------------------|
D|---2-------2------------3----------------------------------------------|
A|---0-------0------------3(strum)---------------------------------------|
D|------------------------3----------------------------------------------|

Verse

Guitar 1
e|------------------------------------------------------------------|
B|------------------------------------------------------------------|
G|---------0----------0----------0------------0---------------------|
D|------4---4----4------4-----4------4-----4-----4------------------|
A|----2--2-----2---2-------2----2-------2----2----------------------|
D|------------------------------------------------------------------|

e|------------------------------------------------------------------|
B|------------------------------------------------------------------|
G|-------2b-----2b--------------------------------------------------|
D|---2-------2--------3---------------------------------------------|
A|---0-------0--------3---------------------------------------------|
D|--------------------3---------------------------------------------|

Guitar 2
e|------------------------------------------------------------------|
B|------------------------------------------------------------------|
G|---0------------2-------------------------------------------------|
D|---4------------2-----------3-------------------------------------|
A|---2---(strum)--0---(strum)-3-------------------------------------|
D|----------------------------3(strum)------------------------------|

Pre Chorus
Guitar 1
Guitar 2
e|---------------------------------------------------------------|
B|---------------------------------------------------------------|
G|---4----4-4-4-4---4-4-4-4---4-4-4-4--4-4-4-4--4-4-4------------|
D|---4----4-4-4-4---4-4-4-4---4-4-4-4--4-4-4-4--4-4-4--2--4------|
A|---2----2-2-2-2---2-2-2-2---2-2-2-2--2-2-2-2--2-2-2--2--4------|
D|-----------------------------------------------------2--4------|

Chorus
Guitar 1 – plays this first chorus only
Guitar 2
e|-----------------------------------------------------------------|
B|-----------------------------------------------------------------|
G|---7-----9----11---6------7-----9-------11----6------------------|
D|---5-----7----9----4------5-----7-------9-----4------------------|
A|---5-----7----9----4------5-----7-------9-----4------------------|
D|---5-----7----9----4------5-----7-------9-----4------------------|

Post Chorus
Guitar 1
Guitar 2
E|----------------------------------------------------------|
B|----------------------------------------------------------|
G|----------------------------------------------------------|
D|--------5------7-------9------4---------------------------|
A|--------5------7-------9------4---------------------------|
D|--------5------7-------9------4---------------------------|

Verse 2 is the same as the one above

Bridge

Guitar 1- silent
Guitar 2
e|---------------------------------------------------------------|
B|---------------------------------------------------------------|
G|---------------------------------------------------------------|
D|---------------------------------------------------------------|
A|---9-------7------4-----5------9----7----4----5----------------|
D|---9-------7------4-----5------9----7----4----5----------------|

Guitar 1
e|----2----0---3---0---2---0---3---5---0-------------------------|
B|------3----3---3---3---3---3---3--3----3-----------------------|
G|---------------------------------------------------------------|
D|---------------------------------------------------------------|
A|---------------------------------------------------------------|
D|---------------------------------------------------------------|

Guitar 2
e|---------------------------------------------------------------|
B|---------------------------------------------------------------|
G|--11------9----6----7------------------------------------------|
D|---9------7----4----5------------------------------------------|
A|---9------7----4----5------------------------------------------|
D|---9------7----4----5------------------------------------------|

Chorus
Guitar 1
Guitar 2 is the same as in first
e|-----2----------------0-------------5---------------------------------|
B|---3-(repeated)-----3-(repeated)--3-(repeated)------------------------|
G|----------------------------------------------------------------------|
D|----------------------------------------------------------------------|
A|----------------------------------------------------------------------|
D|----------------------------------------------------------------------|

End on
Guitar 1
e|--------2~--------------------14~-------------------------------------|
B|------------3~------(or)------------15~-------------------------------|
G|----------------------------------------------------------------------|
D|----------------------------------------------------------------------|
A|----------------------------------------------------------------------|
D|----------------------------------------------------------------------|

Guitar 2
e|---------------------------------------------------|
B|---------------------------------------------------|
G|-------5~------------------------------------------|
D|-------3~------------------------------------------|
A|-------3~------------------------------------------|
D|-------3~------------------------------------------|

| /  slide up
| \  slide down
| h  hammer-on
| p  pull-off
| ~  vibrato
| +  harmonic
| x  Mute note
============================================================================


----------------------------------------------------------------------------
                           Reinventing Your Exit
----------------------------------------------------------------------------

Tuning: Drop D

Intro

Guitar 1 - + pinch harmonic
e|------0------------------3-------------|
B|-----+5----0--0--0---0-----------------|
G|-----+5------5--5--5-------------------|
D|---------------------------------------|
A|---------------------------------------|
D|---------------------------------------|

Guitar 2 – clean
e|---------------------------------------|
B|------0~-----0~-----0~-----0~----------|
G|------5~-----5~-----5~-----5~----------|
D|------5~-----5~-----5~-----5~----------|
A|------0~-----3~-----3~-----5~----------|
D|--------------------3~-----5~----------|

Guitar 1
Guitar 2 - Distorted
e|-----------------------------------------------------------------|
B|----0--0---0-0-0---0--0---0-0-0---0--0---0-0-0---0--0---0-0-0----|
G|----5--5---5-5-5---5--5---5-5-5---5--5---5-5-5---5--5---5-5-5----|
D|----5--5---5-5-5---5--5---5-5-5---5--5---5-5-5---5--5---5-5-5----|
A|----0--0---0-0-0---3--3---3-3-3---3--3---3-3-3---5--5---5-5-5----|
D|----------------------------------3--3---3-3-3---5--5---5-5-5----|
   “ Invincible…”

Verse

Guitar 1
e|-----------------------------------------------------------------|
B|--------0~-------------------------------------------------------|
G|--------5~-----------5-----------4--5----------------------------|
D|--------5~-----------5-----------5--5----------------------------|
A|-----0--0~-------------------------------------------------------|
D|------------------3------------5---------------------------------|

Guitar 2 – decrease the volume a little bit
E|---------------------------------------------------|
B|---------------------------------------------------|
G|---------------------------------------------------|
D|---------------------------------------------------|
A|-------7----------3-------------5------------------|
D|-------7----------3-------------5------------------|

Guitar 1
e|--------------------------------------------------------------------|
B|-----5--------3-------5------6-------5-----3-----5-------6----------|
G|--------5--------5-------5------5------5------5-----5-------5-------|
D|--------3--------3-------3------3------3------3-----3-------3-------|
A|--------------------------------------------------------------------|
D|--------------------------------------------------------------------|

Guitar 2 – raise volume a bit, but not all the way yet
e|--------------------------------------------------------------------|
B|--------------------------------------------------------------------|
G|--------------------------------------------------------------------|
D|--------------------------------------------------------------------|
A|------77777777--33333333--55555555--22222222------------------------|
D|------77777777--33333333--55555555--22222222------------------------|
PM………………………………………………………
   “Your uninviting, unrewarding…”

Pre Chorus

Guitar 1 “we all wanna be…”
Guitar 2 “we all wanna be…”
e|-------------------------------------------------------------------------|
B|----0-----------0-------------0-----------*0------------0--------0-------|
G|----5-----------5-------------5-----------*5------------5--------5-------|
D|----5-----------5-------------5-----------*5------------5--------5-------|
A|----3-----------0-------------5-----------*3------------0--------5-------|
D|----3(strum)----0(strum)------5(strum)----*3(strum)-----0(strum--5(strum)|
*Palm mute this chord the first two times you hit it

Guitar 1
Guitar 2 - silent
e|--------------------------------|
B|--5555-66---5555--66------------|
G|--5555-55---5555--55------------|
D|--3333-33---3333--33------------|
A|--------------------------------|
D|--------------------------------|

Chorus

Guitar 1
e|--8-------8------8-------121212h13-10-----8------8--121212h15-12--|
B|-----5-6----5-6----5-6----------------5-6---5-6-------------------|
G|------------------------------------------------------------------|
D|------------------------------------------------------------------|
A|------------------------------------------------------------------|
D|------------------------------------------------------------------|

Guitar 2 – now put that volume (on the guitar, not amp) up all the way
e|----------------------------------------------------------------|
B|----0--0---0-0-0---0--0---0-0-0---0--0---0-0-0---0--0---0-0-0---|
G|----5--5---5-5-5---5--5---5-5-5---5--5---5-5-5---5--5---5-5-5---|
D|----5--5---5-5-5---5--5---5-5-5---5--5---5-5-5---5--5---5-5-5---|
A|----0--0---0-0-0---3--3---3-3-3---3--3---3-3-3---5--5---5-5-5---|
D|----------------------------------3--3---3-3-3---5--5---5-5-5---|

Verse

Guitar 1
e|-----------------------------------------|
B|--------0~-------------------------------|
G|--------5~-----------5-----------4--5----|
D|--------5~-----------5-----------5--5----|
A|-----0--0~-------------------------------|
D|-----------------3------------5----------|

Guitar 2 – decrease the volume a little bit
e|-------------------------------------------------------|
B|-------------------------------------------------------|
G|-------------------------------------------------------|
D|-------------------------------------------------------|
A|-------7----------3-------------5----------------------|
D|-------7----------3-------------5----------------------|

Guitar 1
e|------------------------------------------------------------------|
B|-----5--------3-------5------6-------5-----3-----5-------6--------|
G|--------5--------5-------5------5------5------5-----5-------5-----|
D|--------3--------3-------3------3------3------3-----3-------3-----|
A|------------------------------------------------------------------|
D|------------------------------------------------------------------|

Guitar 2 – raise volume a bit, but not all the way yet
e|----------------------------------------------------------------|
B|----------------------------------------------------------------|
G|----------------------------------------------------------------|
D|----------------------------------------------------------------|
A|------77777777--33333333--55555555--22222222--------------------|
D|------77777777--33333333--55555555--22222222--------------------|
PM………………………………………………………
   “You broke my heart again…”

Pre Chorus

Guitar 1 “we all wanna be…”
Guitar 2 “we all wanna be…”
e|------------------------------------------------------------------|
B|----0-----------0-----------0--------*0--------0---------0--------|
G|----5-----------5-----------5--------*5--------5---------5--------|
D|----5-----------5-----------5--------*5--------5---------5--------|
A|----3-----------0-----------5--------*3--------0---------5--------|
D|----3(strum)----0(strum)----5(strum)-*3(strum)-0(strum)--5(strum)-|
*Palm mute this chord the first two times you hit it

Chorus

Guitar 1
e|--8-------8------8-------121212h13-10-----8------8--121212h15-12--|
B|-----5-6----5-6----5-6----------------5-6---5-6-------------------|
G|------------------------------------------------------------------|
D|------------------------------------------------------------------|
A|------------------------------------------------------------------|
D|------------------------------------------------------------------|

Guitar 2 – now put that volume (on the guitar, not amp) up all the way
e|---------------------------------------------------------------------|
B|----0--0---0-0-0---0--0---0-0-0---0--0---0-0-0---0--0---0-0-0--------|
G|----5--5---5-5-5---5--5---5-5-5---5--5---5-5-5---5--5---5-5-5--------|
D|----5--5---5-5-5---5--5---5-5-5---5--5---5-5-5---5--5---5-5-5--------|
A|----0--0---0-0-0---3--3---3-3-3---3--3---3-3-3---5--5---5-5-5--------|
D|----------------------------------3--3---3-3-3---5--5---5-5-5--------|


Breakdown

Guitar 1
e|--------------0------------------------------------+5---------|
B|--0000-0000---4-0000-0000--0000-0000---+5--0000-0000----------|
G|--5555-5555-----5555-5555--5555-5555---+5--5555-5555----------|
D|--5555-5555-----5555-5555--5555-5555---+5--5555-5555----------|
A|--0000-0000-----3333-5555--0000-0000-------3333-5555----------|
D|----------------3333-5555------------------3333-5555----------|

Guitar 2
e|-------------------------------------------------------|
B|-------------------------------------------------------|
G|-------------------------------------------------------|
D|-------------------------------------------------------|
A|---7777-7777----3333-5555----7777-7777----3333--5555---|
D|---7777-7777----3333-5555----7777-7777----3333--5555---|

Interlude

Guitar 1 – clean, repeat continuously
e|------------------------------------------------------------------|
B|--------0-------------0--------------0-------------0--------------|
G|----------5-4-5---------5-4-5----------5-4-5---------5-4-5--------|
D|----------5-5-5---------5-5-5----------5-5-5---------5-5-5--------|
A|----0--------------3----------------------------------------------|
D|-----------------------------------3------------5-----------------|

Guitar 2
e|---------------------------------------------|
B|--0~--0~--0~--0~-----0~----0~---0~---0~------|
G|--5~--5~--5~--5~-----5~----5~---5~---5~------|
D|--5~--5~--5~--5~-----5~----5~---5~---5~------|
A|--0~--3~--3~--5~-----0~----3~---3~---5~------|
D|----------3~--5~----------------3~---5~------|

Guitar 2 (continued) repeat until chorus – add distortion and lower volume a bit
e|-------------------------------------------------|
B|---0-----------0-----------0------------0--------|
G|---5-----------5-----------5------------5--------|
D|---5-----------5-----------5------------5--------|
A|---0(strum)----3(strum)----3------------5--------|
D|---------------------------3(strum)----—5(strum)-|
PM……………………………………………..
* Ease up on the palm muting as you get closer to the chorus

Guitar 1 towards the end of the interlude, when it picks up
e|------------------------------------------------------------|
B|---5-----3-----5-----6--------5------3-----5-----6----------|
G|-----5-----5-----5------5--------5-----5------5----5--------|
D|-----3-----3-----3------3--------3-----3------3----3--------|
A|------------------------------------------------------------|
D|------------------------------------------------------------|
“this is the way that we should have done…”

Chorus

Guitar 1
e|--8-------8------8-------121212h13-10-----8------8--121212h15-12--|
B|-----5-6----5-6----5-6----------------5-6---5-6-------------------|
G|------------------------------------------------------------------|
D|------------------------------------------------------------------|
A|------------------------------------------------------------------|
D|------------------------------------------------------------------|

Guitar 2 – now put that volume (on the guitar, not amp) up all the way
e|------------------------------------------------------------------|
B|----0--0---0-0-0---0--0---0-0-0---0--0---0-0-0---0--0---0-0-0-----|
G|----5--5---5-5-5---5--5---5-5-5---5--5---5-5-5---5--5---5-5-5-----|
D|----5--5---5-5-5---5--5---5-5-5---5--5---5-5-5---5--5---5-5-5-----|
A|----0--0---0-0-0---3--3---3-3-3---3--3---3-3-3---5--5---5-5-5-----|
D|----------------------------------3--3---3-3-3---5--5---5-5-5-----|

End on

Guitar 1
e|--------7b-------------|
B|-----------------------|
G|-----------------------|
D|-----------------------|
A|-----------------------|
D|-----------------------|

Guitar 2
e|---------------------|
B|---------0~----------|
G|---------5~----------|
D|---------5~----------|
A|---------0~----------|
D|---------------------|

| /  slide up
| \  slide down
| h  hammer-on
| p  pull-off
| ~  vibrato
| +  harmonic
| x  Mute note
============================================================================
----------------------------------------------------------------------------
        	                  The Blue Note
----------------------------------------------------------------------------

Tuning: Drop D

This song is basically just an interlude… this part is repeated throughout the song. 
is only a minute or less long!

Delay sounds cool when added  to this
e|--------------------------------------------------------------------|
B|------5/4-----------5/4---------5/4--------5/4----------------------|
G|--------------------------------------------------------------------|
D|--------------------------------------------------------------------|
A|--------------------------------------------------------------------|
D|--------------------------------------------------------------------|

| /  slide up
| \  slide down
| h  hammer-on
| p  pull-off
| ~  vibrato
| +  harmonic
| x  Mute note
============================================================================
----------------------------------------------------------------------------
It’s Dangerous Business Walking Out Your Front Door
                              (The 80’s Song)
----------------------------------------------------------------------------

Tuning: Drop D

	The track “The 80’s Song” is just a demo version of this song. The only difference is 
ia a demo and one is the final cut and I believe the demo is a second longer.

Intro
Guitar 1
e|---------------------------------------------------------------|
B|-------0----0----0---------------------------------------------|
G|-------5----5----5---------------------------------------------|
D|-------5----5----5---------------------------------------------|
A|-------0----0----0---------------------------------------------|
D|---------------------------------------------------------------|

Guitar 2
e|---------------------------------------------------------------|
B|---------------------------------------------------------------|
G|-----------------------------9---9---9-------------------------|
D|----------------------------10--10--10-------------------------|
A|-----------------------------7---7---7-------------------------|
D|-----------------------------7---7---7-------------------------|

Verse

Guitar 1
e|---------------------------------------------------------------|
B|----0--0--0--0---------0-0-0-0---------------------------------|
G|----5--5--5--5---------5-5-5-5---------------------------------|
D|----5--5--5--5---------5-5-5-5----5-5-5-5--0-0-0-0---5-5-5-5---|
A|----0--0--0--0---------0-0-0-0----3-3-3-3--0-0-0-0---5-5-5-5---|
D|----------------------------------3-3-3-3--0-0-0-0---5-5-5-5---|
Guitar 2
e|------------------------------------------------------------------------|
B|------------------------------------------------------------------------|
G|----9-9-9-9--9---------9-9-9-9--9------------------5--------------------|
D|---10101010--x---------10101010-x----------5-5-5-5-x-0-0-0-0--5-5-5-5---|
A|----7-7-7-7--7(strum)--7-7-7-7--7(strum)---3-3-3-3-3-0-0-0-0--5-5-5-5---|
D|----7-7-7-7------------7-7-7-7-------------3-3-3-3---0-0-0-0--5-5-5-5---|

Guitar 1
e|---------------------------------------------|
B|----------0~---------------------------------|
G|----------5~---------------------------------|
D|-xxxxxx---5~---------------------------------|
A|-xxxxxx---0~---------------------------------|
D|-xxxxxx--------------------------------------|
                    “time is running…”
Guitar 2
e|---------------------------------------------|
B|---------------------------------------------|
G|---------------------------------------------|
D|-xxxxxx--------------------------------------|
A|-xxxxxx--------------------------------------|
D|-xxxxxx--------------------------------------|
                  “time is running…”

Guitar 1
e|--------------------------------------------------------------|
B|---------------------------0~---------------------------------|
G|---------------------------5~---------------------------------|
D|---------------------------5~------5~--3~---5~----------------|
A|---------------------------0~------5~--3~---5~----------------|
D|-----------------------------------5~--3~---5~----------------|
                                    “Full speed ahead…”
Guitar 2
e|--------------------------------------------------------------|
B|--------------------------------------------------------------|
G|----------------------9~--------------------------------------|
D|--xxxxxx--------------10~------5----3----5--------------------|
A|--xxxxxx--------------7~-------5----3----5--------------------|
D|--xxxxxx--------------7~-------5----3----5--------------------|
                                  “Full speed ahead…”

Guitar 1 with chorus pedal and no distortion
Guitar 2 -silent
e|--------------------------------------------------------|
B|-----0--------------------------------------------------|
G|-----5--------------------------------------------------|
D|-----5---------5----------5-----------------------------|
A|-----0(strum)--3----------5-----------------------------|
D|---------------3(strum)---5(strum)----------------------|
   “My knuckles have turned to white…”

Guitar 1
e|------------------------------------------------------|
B|---------------------------0~-------------------------|
G|---------------------------5~-------------------------|
D|---------------------------5~-----5~--3~---5~---------|
A|---------------------------0~-----5~--3~---5~---------|
D|----------------------------------5~--3~---5~---------|
                                    “Around this turn…”
Guitar 2
e|------------------------------------------------------|
B|------------------------------------------------------|
G|----------------------9~------------------------------|
D|--xxxxxx--------------10~------5----3----5------------|
A|--xxxxxx--------------7~-------5----3----5------------|
D|--xxxxxx--------------7~-------5----3----5------------|
                                  “Around this turn…”
Chorus

Guitar 1
Guitar 2 -same
e|------------------------------------------------------|
B|-----0------------------------------------------------|
G|-----5------------------------------------------------|
D|-----5--------5----------5----------------------------|
A|-----0(strum)-3----------5----------------------------|
D|--------------3(strum)---5(strum)---------------------|
   “My knuckles have turned to white…”

e|-----------------------------------------------------------|
B|-----------------------------------------------------------|
G|-----14-----------12--------14---------12--------14--------|
D|-----x------------x---------x----------x---------x---------|
A|-----12(strum)----10(strum)-12(strum)--10(strum)-12(strum)-|
D|-----------------------------------------------------------|
   “I will now bring new meaning…”

Guitar 1
Guitar 2- almost same as above
e|------------------------------------|--------------------------------------|
B|------------------------------------|-----------0~-------------------------|
G|----------17--------------16--------|-----------9~-------------------------|
D|----------x----------------x--------|-----------10~------------------------|
A|----------15(strum)-------14(strum)-|---------* 7~-------------------------|
D|------------------------------------|-----------7~-------------------------|
                                                          * only guitar 2
Guitar 1-does this instead (they do this live)
e|-------------------------------------------------|
B|--------------------------------0-0-0------------|
G|-----9~---12~----10~----9~------5-5-5~-----------|
D|--------------------------------5-5-5~-----------|
A|--------------------------------0-0-0~-----------|
D|-------------------------------------------------|

***Break*** “Drowning in my sleep…”

Breakdown

Guitar 1
e|------------------------------------------------------------|
B|----0--0--0--0--------0-0-0-0-------------------------------|
G|----5--5--5--5--------5-5-5-5-------------------------------|
D|----5--5--5--5--------5-5-5-5----5-5-5-5--0-0-0-0---5-5-5-5-|
A|----0--0--0--0--------0-0-0-0----3-3-3-3--0-0-0-0---5-5-5-5-|
D|---------------------------------3-3-3-3--0-0-0-0---5-5-5-5-|

Guitar 2
e|--------------------------------------------------------|
B|--------------------------------------------------------|
G|----9-9-9-9----9-9-9-9----------------------------------|
D|---10101010----10101010-----5-5-5-5--0-0-0-0--5-5-5-5---|
A|----7-7-7-7----7-7-7-7------3-3-3-3--0-0-0-0--5-5-5-5---|
D|----7-7-7-7----7-7-7-7------3-3-3-3--0-0-0-0--5-5-5-5---|

Guitar 1
e|------------------------------------------------------------|
B|----0--0--0--0--------0-0-0-0-------------------------------|
G|----5--5--5--5--------5-5-5-5-------------------------------|
D|----5--5--5--5--------5-5-5-5----5-5-5-5--0-0-0-0---5-5-5-5-|
A|----0--0--0--0--------0-0-0-0----3-3-3-3--0-0-0-0---5-5-5-5-|
D|---------------------------------3-3-3-3--0-0-0-0---5-5-5-5-|
Guitar 2
e|---------------------------------------------------------------------|
B|---------------------------------------------------------------------|
G|----9-9-9-9--9---------9-9-9-9--9----------------5-------------------|
D|---10101010--x--------10101010--x--------5-5-5-5-x-0-0-0-0--5-5-5-5--|
A|----7-7-7-7--7(strum)--7-7-7-7--7(strum)-3-3-3-3-3-0-0-0-0--5-5-5-5--|
D|----7-7-7-7------------7-7-7-7-----------3-3-3-3---0-0-0-0--5-5-5-5--|

Chorus

Guitar 1
e|------------------------------------------------|
B|-----0------------------------------------------|
G|-----5------------------------------------------|
D|-----5-----------5----------5-------------------|
A|-----0(strum)----3----------5-------------------|
D|-----------------3(strum)---5(strum)------------|
   “My knuckles have turned to white…”

Guitar 2
e|----------------------------------------------|
B|----------------------------------------------|
G|-----14-----------17------------16------------|
D|-----x-------------x-------------x------------|
A|-----12(strum)----15(strum)-----14(strum)-----|
D|----------------------------------------------|

End on
  Guitar 1     and   Guitar 2
e|---------------|-----------------|
B|----0----------|-----------------|
G|----5----------|------14---------|
D|----5----------|-------x---------|
A|----0----------|------12---------|
D|---------------|-----------------|


| /  slide up
| \  slide down
| h  hammer-on
| p  pull-off
| ~  vibrato
| +  harmonic
| x  Mute note
===========================================================================

----------------------------------------------------------------------------
                                 Down, Set, Go
----------------------------------------------------------------------------

Tuning: Drop D

Intro

Guitar 1- put the tone on your guitar to zero so it sounds all gritty
e|------------------------------------------------------------|
B|------------------------------------------------------------|
G|-----666666----222222----444444---666666---222222---444444--|
D|-----444444----000000----222222---444444---000000---222222--|
A|-----444444----000000----222222---444444---000000---222222--|
D|-----444444----000000----222222---444444---000000---222222--|

Guitar 2 – come in after first guitar has played the above (same as first guitar)
e|--------------------------------------------------|
B|--------------------------------------------------|
G|--------------------------------------------------|
D|----444444-000000-222222---444444-000000-222222---|
A|----444444-000000-222222---444444-000000-222222---|
D|----444444-000000-222222---444444-000000-222222---|

Verse

Guitar 1- along these lines
e|------------------------------------------------|
B||-15-15-15-15-15--12-12-12-12-12--9-9-9-9-9-----|
G|--14-14-14-14-14--11-11-11-11-11--9-9-9-9-9-----|
D|------------------------------------------------|
A|------------------------------------------------|
D|------------------------------------------------|

Guitar 2
e|--------------------------------------------------|
B|--------------------------------------------------|
G|--------------------------------------------------|
D|----444444-000000-222222---444444-000000-222222---|
A|----444444-000000-222222---444444-000000-222222---|
D|----444444-000000-222222---444444-000000-222222---|
PM………………………………………………………………

Pre Chorus

Guitar 2
e|-------------------|
B|-------------------|
G|-------------------|
D|-------0~----------|
A|-------0~----------|
D|-------0~----------|

Guitar 1 – light palm mute
e|------------------------------------|
B|------------------------------------|
G|---66-77--66-44--66-77--66-44-------|
D|------------------------------------|
A|------------------------------------|
D|------------------------------------|
PM…………………………………..

Guitar 2
e|--------------|
B|--------------|
G|--------------|
D|------222-----|
A|------222-----|
D|------222-----|

Chorus

Guitar 1
Guitar 2
e|---------------------------------------------------|
B|---------------------------------------------------|
G|---------------------------------------------------|
D|---44444444444-77777777777-00000000000-22222222222-|
A|---44444444444-77777777777-00000000000-22222222222-|
D|---44444444444-77777777777-00000000000-22222222222-|

Guitar 1
Guitar 2
e|--------------------------------------------------|
B|--------------------------------------------------|
G|--------------------------------------------------|
D|----444444-000000-222222---444444-000000-222222---|
A|----444444-000000-222222---444444-000000-222222---|
D|----444444-000000-222222---444444-000000-222222---|

Verse

Guitar 1
e|-----------------------------------------------|
B||-15-15-15-15-15--12-12-12-12-12--9-9-9-9-9----|
G|--14-14-14-14-14--11-11-11-11-11--9-9-9-9-9----|
D|-----------------------------------------------|
A|-----------------------------------------------|
D|-----------------------------------------------|

Guitar 2
e|---------------------------------------------------|
B|---------------------------------------------------|
G|---------------------------------------------------|
D|----444444-000000-222222---444444-000000-222222----|
A|----444444-000000-222222---444444-000000-222222----|
D|----444444-000000-222222---444444-000000-222222----|
PM………………………………………………………………

Pre Chorus

Guitar 1
Guitar 2
e|---------------------|
B|---------------------|
G|---------------------|
D|-------0~------------|
A|-------0~------------|
D|-------0~------------|

Chorus

Guitar 1
Guitar 2
e|------------------------------------------------------|
B|------------------------------------------------------|
G|------------------------------------------------------|
D|---44444444444-77777777777-00000000000-22222222222----|
A|---44444444444-77777777777-00000000000-22222222222----|
D|---44444444444-77777777777-00000000000-22222222222----|

Interlude

Guitar 2
e|---------------|
B|---------------|
G|---------------|
D|-----0~--------|
A|-----0~--------|
D|-----0~--------|

Guitar 1
e|----------------------------------------------------------------|
B|---0---0--0--0--0--0-0-0-0-0-0-0--0--0-0--0--0--0--0-0-0-0-0-0--|
G|---11-11-11-11-11-11-9-9-9-9-9-9-11-11-11-11-11-11-9-9-9-9-9-9--|
D|----------------------------------------------------------------|
A|----------------------------------------------------------------|
D|----------------------------------------------------------------|
PM……………………………………………………………………………..

Guitar 1 (continued) – ease off of palm mute
e|----------------------------------------------------------------|
B|----------------------------------------------------------------|
G|-11-11-11-11-11-11-9-9-9-9-9-9-11-11-11-11-11-11-9-9-9-9-9-9----|
D|-----------------------------------------------\-----------/----|
A|------------------------------------------------\--bend---/-----|
D|-------------------------------------------------\-------/------|
PM………………………………………………………………

Bridge (Acoustic part)

Guitar 1 – either turn the volume knob down a bit or use no distortion
e|--------------------------------------------------------------|
B|--14------------14----------12---------12---------------------|
G|--11----11------11---11-----11---11----11---11----------------|
D|--14------------14----------14---------14---------------------|
A|--------------------------------------------------------------|
D|--------------------------------------------------------------|

Guitar 2 – Acoustic guitar, but on electric I used a chorus pedal and no distortion
e|----------------------------------------------------------------|
B|----------------------------------------------------------------|
G|----11--------7--------4-----------11-------7-------4-----------|
D|----11--------7--------4-----------11-------7-------4-----------|
A|-----9--------5--------2-----------9--------5-------2-----------|
D|----------------------------------------------------------------|

Outro

Guitar 1 – silent
Guitar 2
e|-----------------------------|
B|-----------------------------|
G|-----------------------------|
D|--444444--000000--222222-----|
A|--444444--000000--222222-----|
D|--444444--000000--222222-----|

Guitar 1 – two ways to play this
- Hammer ons and Pull offs
This way:
e|----9--0--5--0--7--0--4--0---|
B|-----------------------------|
G|-----------------------------|
D|-----------------------------|
A|-----------------------------|
D|-----------------------------|
This way:
e|-----------------------------|
B|---14---10---12---9----------|
G|------9----9----9---9--------|
D|-----------------------------|
A|-----------------------------|
D|-----------------------------|

Guitar 2
e|----------------------------|
B|----------------------------|
G|----------------------------|
D|--444444--000000--222222----|
A|--444444--000000--222222----|
D|--444444--000000--222222----|

End on

Guitar 1
e|-----------|
B|---9b------|
G|-----------|
D|-----------|
A|-----------|
D|-----------|

Guitar 2
e|--------------------|
B|--------------------|
G|--------------------|
D|----------4---------|
A|----------4---------|
D|----------4---------|

| /  slide up
| \  slide down
| h  hammer-on
| p  pull-off
| ~  vibrato
| +  harmonic
| x  Mute note
============================================================================

----------------------------------------------------------------------------
                  I Don’t Feel Very Receptive Today
----------------------------------------------------------------------------


Tuning: Drop D

Guitar 1
e|----------------------------|
B|----------------------------|
G|----------------------------|
D|--8888888888888888-0-00-----|
A|--8888888888888888-0-00-----|
D|--8888888888888888-0-00-----|

Guitar 2
e|--------------------------------------------------------------|
B|--------------------------------------------------------------|
G|-10-10-10-10-10--10-10-10-10-10-10-10-10-10-10-10-------------|
D|--x---x---x---x---x--x--x--x--x-x---x-x--x---x--x-------0--00-|
A|--8---8---8---8---8--8--8--8--8-8---8-8--8---8--8-------0--00-|
D|--8---8---8---8---8--8--8--8--8-8---8-8--8---8--8-------0--00-|

Guitar 1
Guitar 2
e|--------------------------|
B|--------------------------|
G|--------------------------|
D|-------00---00---00~------|
A|-------00---00---00~------|
D|-------00---00---00~------|
PM                 ..
    “I’m sure I’ve tasted this before…”

Guitar 1
e|---------------------------------------------------------|
B|---------------------------------------------------------|
G|---10/9--14141414-10/9--14141414---7/10101010-7/12121212-|
D|----x/x--x-x-x--x--x/x--x-x-x-x----x/x-x-x-x--x/x-x-x-x--|
A|----8/7--12121212--8/7--12121212---5/8-8-8-8--5/10101010-|
D|---------------------------------------------------------|

Guitar 2
e|-------------------------------------------------|
B|-------------------------------------------------|
G|---------------------------7----------5----------|
D|---8----------5------------7----------5----------|
A|---8----------5------------5(strum)---3(strum)---|
D|---8(strum)---5(strum)---------------------------|

Guitar 1
e|----------------------------|
B|----------------------------|
G|--------14------------------|
D|---00----x------------------|
A|---00---12(strum)-----------|
D|---00-----------------------|
PM    . .

Guitar 2
e|--------------------------|
B|--------------------------|
G|---------10---------------|
D|----xx---x----------------|
A|----xx---8(strum)---------|
D|----xx--------------------|

Guitar 1
Guitar 2
e|---------------------------------------------------------|
B|---------------------------------------------------------|
G|--14~--14-14---12-12----14--14-14---12--12--12---9--9--9-|
D|---x~---x--x---x---x----x---x--x-----x---x---x---x--x--x-|
A|--12~--12-12---10-10----12--12-12---10--10--10---7--7--7-|
D|---------------------------------------------------------|

Guitar 1
e|---------------------------------------------------------|
B|---------------------------------------------------------|
G|--10---------12--------14---------19---------17----------|
D|---x----------x--------x-----------x---------x-----------|
A|---8(strum)--10(strum)-12(strum)--17(strum)--15(strum)---|
D|---------------------------------------------------------|

Guitar 2
e|--------------------------------------------------------|
B|--------------------------------------------------------|
G|--10---------12--------14----------7----------5---------|
D|---x----------x--------x-----------x----------x---------|
A|---8(strum)--10(strum)-12(strum)---5(strum)---3(strum)--|
D|--------------------------------------------------------|

Guitar 1
e|---------------------------------------------------------|
B|---------------------------------------------------------|
G|---10/9--14141414-10/9--14141414---7/10101010-7/12121212-|
D|----x/x---x-x-x-x--x/x---x-x-x-x---x/x-x-x-x--x/x-x-x-x--|
A|----8/7--12121212--8/7--12121212---5/8-8-8-8--5/10101010-|
D|---------------------------------------------------------|

Guitar 2
e|-------------------------------------------------|
B|-------------------------------------------------|
G|-------------------------------------------------|
D|---0----------3----------8--------5--------------|
A|---0----------3----------8--------5--------------|
D|---0(strum)---3(strum)---8(strum)-5(strum)-------|

Guitar 1
Guitar 2 – mix some effects, such as pick scrapes, harmonics, etc.
e|------------------------------------------------------0----------------|
B|------------------------------------------------------5b---------------|
G|------------------------------------------------------7b---------------|
D|---0-0-0-0---5-5-5-5---8-8-8-8----0-0-0-0------5-5-5-5---8-8-8-8---0~--|
A|---0-0-0-0---5-5-5-5---8-8-8-8----0-0-0-0------5-5-5-5---8-8-8-8---0~--|
D|---0-0-0-0---5-5-5-5---8-8-8-8----0-0-0-0------5-5-5-5---8-8-8-8---0~--|

Outro
Guitar 1 & 2 – repeat till fade
e------------------------------------|
b------------------------------------|
g------------------------------------|
d---------------------------0--------|
a-----8-------7------8------5--------|
D----12------10------7------8--------|

| /  slide up
| \  slide down
| h  hammer-on
| p  pull-off
| ~  vibrato
| +  harmonic
| x  Mute note
===========================================================================

----------------------------------------------------------------------------
                  I’m Content With Losing
----------------------------------------------------------------------------

Tuning: Drop D

Guitar 1

E|--0-0--0-----------------------------------------|
B|--4-5--4--0---0--0--0--0--0--0--0--0--0----------|
G|----------6---4--4--4--4--4--4--4--4--4----------|
D|-------------------------------------------------|
A|-------------------------------------------------|
D|-------------------------------------------------|

E|-0-0-0-----------------------0-0-0-0-0-0-0-0--0-0-0-0-0-0-0-0--0-0-0-0-0-0-0-0---------|
B|-4-5-4--0-0-0--0-0-0-0-0-0---4-4-4-4-5-5-5-5--4-4-4-4-5-5-5-5--4-4-4-4-5-5-5-5---------|
G|--------6-4-6--6-6-6-6-6-6-------------------------------------------------------------|
D|---------------------------------------------------------------------------------------|
A|---------------------------------------------------------------------------------------|
D|---------------------------------------------------------------------------------------|

e-0-0-0-0-0-0-0-0-------7----7-----7-----7----7----7----7----7----7-----7----------|
b-4-4-4-4-5-5-5-5--4-5---4-5--4-5---4-5---4-5--4-5--4-5--4-5--4-5---4-5------------|
g----------------------------------------------------------------------------------|
d----------------------------------------------------------------------------------|
a----------------------------------------------------------------------------------|
d----------------------------------------------------------------------------------|

e-----------7-----0-0------------------|
b---4-4/9---9-----9/4------------------|
g--------------------------------------|
d--------------------------------------|
a--------------------------------------|
d--------------------------------------|

Guitar 2 –rhythm part in the back
e|-------------------------------------------|
B|-------------------------------------------|
G|-------------------------------------------|
D|----7---------11---------9-----------------|
A|----7---------11---------9-----------------|
D|----7(strum)--11(strum)--9(strum)----------|

Guitar- palm mute
e|--------------------------------------------------------------|
B|--------------------------------------------------------------|
G|--------------------------------------------------------------|
D|---7-7-7-7-7-7---9-9-9-9-9-9--7-7-7-7-7-7--9-9-9-9-9-9----0~--|
A|---7-7-7-7-7-7---9-9-9-9-9-9--7-7-7-7-7-7--9-9-9-9-9-9----0~--|
D|---7-7-7-7-7-7---9-9-9-9-9-9--7-7-7-7-7-7--9-9-9-9-9-9----0~--|
  “how does it feel…”

Chorus
(2x)
e|-----------------------------------------------------|
B|-----------------------------------------------------|
G|-----------------------------------------------------|
D|--11---------9---------6-6--7-9----------------------|
A|--11---------9---------6-6--7-9----------------------|
D|--11(strum)--9(strum)--6-6--7—9----------------------|

e|-----------------------------------------------------|
B|-----------------------------------------------------|
G|-----------------------------------------------------|
D|--7-7-7--4-4-4--11-11-11--9-9--11-9-11---------------|
A|--7-7-7--4-4-4--11-11-11--9-9--11-9-11---------------|
D|--7-7-7--4-4-4--11-11-11--9-9--11-9-11---------------|

e|--------------------------|
B|--------------------------|
G|--------------------------|
D|--7-7-7--4-4-4--11-9------|
A|--7-7-7--4-4-4--11-9------|
D|--7-7-7--4-4-4--11-9------|

e|------------------|--------------------------|
B|------------------|--------------------------|
G|------------------|--------------------------|
D|-7-----11---9-----|---7-----11----9----------|
A|-7-----11---9-----|---7-----11----9----------|
D|-7-----11---9-----|---7-----11----9----------|
Pm… “Ill fantasize..”     “acceptance..”

Guitar- palm mute
e|--------------------------------------------------------|
B|--------------------------------------------------------|
G|--------------------------------------------------------|
D|---7-7-7-7-7-7---9-9-9-9-9-9--7-7-7-7-7-7--9-9-9-9-9-9--|
A|---7-7-7-7-7-7---9-9-9-9-9-9--7-7-7-7-7-7--9-9-9-9-9-9--|
D|---7-7-7-7-7-7---9-9-9-9-9-9--7-7-7-7-7-7--9-9-9-9-9-9--|
  “how does it feel…”

Chorus
(2x)
e|------------------------------------|
B|------------------------------------|
G|------------------------------------|
D|-11---------9---------6-6--7-9------|
A|-11---------9---------6-6--7-9------|
D|-11(strum)--9(strum)--6-6--7—9------|

e|---------------------------------------|
B|---------------------------------------|
G|---------------------------------------|
D|--7-7-7--4-4-4--11-11-11--9-9--11-9-11-|
A|--7-7-7--4-4-4--11-11-11--9-9--11-9-11-|
D|--7-7-7--4-4-4--11-11-11--9-9--11-9-11-|

e|----------------------|
B|----------------------|
G|----------------------|
D|--7-7-7--4-4-4--11-9--|
A|--7-7-7--4-4-4--11-9--|
D|--7-7-7--4-4-4--11-9--|

e|----------------------------------------|
B|----------------------------------------|
G|----------------------------------------|
D|--7-7-7--4-4-4--11-11-11--9-9--11-9-11--|
A|--7-7-7--4-4-4--11-11-11--9-9--11-9-11--|
D|--7-7-7--4-4-4--11-11-11--9-9--11-9-11--|

e|----------------------|
B|----------------------|
G|----------------------|
D|--7-7-7--4-4-4--11-9--|
A|--7-7-7--4-4-4--11-9--|
D|--7-7-7--4-4-4--11-9--|
   “you cant see past…”

Guitar 1
e|----------------------------------------------------|
b|--------------------------------------0-0-0-0-0-0-0-|
g|---------1----0-----------1---0-------4-4-4-4-4-4-4-|
d|------2----2----1------2---2----1-----6-6-6-6-6-6-6-|
a|---0-----------------0----------------4-4-4-4-4-4-4-|
D|----------------------------------------------------|

e|----4---------------------------------|----------|
b|------5---4-0--0--2-----5--4--0--0--2-|--4--5----|
g|--------------------------------------|----------|
d|--------------------------------------|----------|
a|--------------------------------------|----------|
D|--------------------------------------|----------|

Guitar  2 –repeat till fade
e|--------------------------------------|
B|--------------------------------------|
G|--------------------------------------|
D|---7-7-7-7--7-7-7-7--11-11-11---------|
A|---7-7-7-7--7-7-7-7--11-11-11---------|
D|---7-7-7-7--7-7-7-7--11-11-11---------|


| /  slide up
| \  slide down
| h  hammer-on
| p  pull-off
| ~  vibrato
| +  harmonic
| x  Mute note
============================================================================

----------------------------------------------------------------------------
              Some Will Seek Forgiveness, Others Escape
                                    (SmicTague)
----------------------------------------------------------------------------

Tuning: Drop D

Intro

Guitar – might be keyboard, this is heard throughout the song
e|-----------------------------------------------------------------------|
B|-----------------7-----------------7----------------7----------------7-|
G|-----------9-----------------9---------------9-----------------9-------|
D|----7-----------------7--------------7------------------7--------------|
A|-----------------------------------------------------------------------|
D|-----------------------------------------------------------------------|

Verse

Guitar 1
e|-------------------------------------------------------|
B|-------------7-----------------7-----------------------|
G|---------------9-----------------9---------------------|
D|---7-----9------------7----9---------------------------|
A|-------------------------------------------------------|
D|-------------------------------------------------------|

Guitar 2
e|--------0~-----------------0~----------------------|
B|--------2~-----------------2~----------------------|
G|--------2~-----------------0~----------------------|
D|--------0~-----------------0~----------------------|
A|---------------------------x~----------------------|
D|---------------------------5~----------------------|

Chorus

Guitar 1
e|--------------------------------------|
B|-------10----10---10---5---7----------|
G|-----7-----7----7----7---7---7--------|
D|--------------------------------------|
A|--------------------------------------|
D|--------------------------------------|

Guitar 2
e|-------0----------------0------------------0-----------|
B|-------0----------------0------------------0-----------|
G|-------7----------------7------------------7-----------|
D|-------7----------------7------------------0-----------|
A|-------5----------------7------------------9-----------|
D|-------5----------------7------------------9-----------|

Verse

Guitar 1
e|-----------------------------------------------------|
B|--------------7-----------------7--------------------|
G|------------------9-------------------9--------------|
D|---7-----9------------7----9-------------------------|
A|-----------------------------------------------------|
D|-----------------------------------------------------|

Guitar 2
e|--------0~-----------------0~-----------|
B|--------2~-----------------2~-----------|
G|--------2~-----------------0~-----------|
D|--------0~-----------------0~-----------|
A|---------------------------x~-----------|
D|---------------------------5~-----------|

Chorus

Guitar 1
e|---------------------------------------------|
B|-------10----10--10---5----7-----------------|
G|-----7-----7---7----7----7---7---------------|
D|---------------------------------------------|
A|---------------------------------------------|
D|---------------------------------------------|

Guitar 2
e|-------0----------------0------------------0----------------|
B|-------0----------------0------------------0----------------|
G|-------7----------------7------------------7----------------|
D|-------7----------------7------------------0----------------|
A|-------5----------------7------------------9----------------|
D|-------5----------------7------------------9----------------|

Guitar 1
e|----------------------------------------------------------------------|
B|-0(10x)-2(10x)-3(10x)-5(10x)-12(10x)-14(10x)-15(10x)-17(10x)-19b(10x)-|
G|----------------------------------------------------------------------|
D|----------------------------------------------------------------------|
A|----------------------------------------------------------------------|
D|----------------------------------------------------------------------|

Guitar 2 – distorted with volume lowered, easing off of the palm mute
e|------------------------------------------|
B|------------------------------------------|
G|------------------------------------------|
D|------------------------------------------|
A|-------555555---777777---999999999999-----|
D|-------555555---777777---999999999999-----|
PM…………………………………………….

Bridge

Guitar 1 – Quiet part
e|---5---5---5---5---5---5---0---0---0---3---3---3---|
B|---3---3---3---3---3---3---3---3---3---3---3---3---|
G|---------------------------------------------------|
D|---------------------------------------------------|
A|---------------------------------------------------|
D|---------------------------------------------------|

Guitar 1 – when it kicks in
e|----55555555---0000---3333-----------|
B|-------------------------------------|
G|-------------------------------------|
D|-------------------------------------|
A|-------------------------------------|
D|-------------------------------------|


Guitar 2
e|----------------------------------------------------|
B|----------------------------------------------------|
G|----------------------------------------------------|
D|---2---------5----------9----------7----------------|
A|---2---------5----------9----------7----------------|
D|---2(strum)--5(strum)---9(strum)---7(strum)---------|

Outro

Guitar 1 – add some type effect like delay or chorus
e|----------------------------------------------|
B|----------------------------------------------|
G|----4~---------6~-------7~-------2~-----------|
D|----------------------------------------------|
A|----------------------------------------------|
D|----------------------------------------------|

Guitar 2 - * pinch harmonics
e|-----------------*12-|-------------------------------------|---------------*12---------|
B|-*12-------*7-------|--*12-----*7*7--*12*12---------|--------*7------------------------|
G|-------*7------------|-----*7---------------------------|------------------------------|
D|----------------------|------------------------*3----|-----------------------------*3--|
A|-----------------------|--------------------------------------|------------------------|
D|-----------------------|--------------------------------------|------------------------|

| /  slide up
| \  slide down
| h  hammer-on
| p  pull-off
| ~  vibrato
| +  harmonic
| x  Mute note
============================================================================

I’ve Got Ten Friends and a Crowbar That Says You Ain’t Gonna Do Jack

----------------------------------------------------------------------------

Tuning: Drop D

Intro

Guitar 1 & 2
e|-----------0------0------0------------|
B|-----------7------8------7------------|
G|-----------0------0------0------------|
D|-----------7------7------7------------|
A|-----------0------0------0------------|
D|--------------------------------------|

Guitar 1- strum each
e|---------------------------------|
B|---------------------------------|
G|---------------------------------|
D|---9----2----4-----5-----7-------|
A|---9----2----4-----5-----7-------|
D|---9----2----4-----5-----7-------|

Guitar 2
e|-------0--------0-------0-------0---0-0--0--0---|
B|---0---3----0---3---0---3---0---3---0-0--0--0---|
G|---4---6----4---6---4---6---4---6---7-9-11-12---|
D|------------------------------------------------|
A|------------------------------------------------|
D|------------------------------------------------|

Verse
Guitar 1 & 2- hold each and let ring out
e|-----------------------------------------|
B|-----------------------------------------|
G|-----------------------------------------|
D|----9~----12~----14~----12~----5~----7~--|
A|----9~----12~----14~----12~----5~----7~--|
D|----9~----12~----14~----12~----5~----7~--|
“Did you think that this was all….”

Palm Muted part
e|------------------------------|
B|------------------------------|
G|------------------------------|
D|--9----12---14---12----5----7-|
A|--9----12---14---12----5----7-|
D|--9----12---14---12----5----7-|

Pre Chorus
Guitar 1
e|---------------------------------------------|
B|---------------------------------------------|
G|---------------------------------------------|
D|-------55-55-55-55-55---77-77-77-77-77-------|
A|-------55-55-55-55-55---77-77-77-77-77-------|
D|-------55-55-55-55-55---77-77-77-77-77-------|
Guitar 2
e|-------0---0----0-----0--------|
B|-------0---0----0-----0--------|
G|-------7---9----11---12--------|
D|-------------------------------|
A|-------------------------------|
D|-------------------------------|

Chorus

Guitar 1- strum each
e|-----------------------------|
B|-----------------------------|
G|-----------------------------|
D|---9----2----4-----5-----7---|
A|---9----2----4-----5-----7---|
D|---9----2----4-----5-----7---|

Guitar 2
e|-------0--------0-------0-------0---0-0--0--0-|
B|---0---3----0---3---0---3---0---3---0-0--0--0-|
G|---4---6----4---6---4---6---4---6---7-9-11-12-|
D|----------------------------------------------|
A|----------------------------------------------|
D|----------------------------------------------|

Breakdown

Guitar 1- repeat until bridge
e|-------------------------|
B|-------------------------|
G|-------------------------|
D|-----99-99-99-99-99------|
A|-----99-99-99-99-99------|
D|-----99-99-99-99-99------|
“we’ll watch it burn…”

Guitar 2- usually play in between Guitar 1’s chords
*- harmonics
b- bends
e|---------0--------12*----------------------12*-|
B|---------3--------12*----------------------12*-|
G|---------6--------12*------------0---------12*-|
D|--(99)------(99)--12*-----(99)--11b---(99)-12*-|
A|--(99)------(99)----------(99)--------(99)-----|
D|--(99)------(99)----------(99)--------(99)-----|
Bridge

Guitar 1
e|-------------------------------|
B|-------------------------------|
G|-------------------------------|
D|----5------7-----9--11-9--11---|
A|----5------7-----9--9--9--9----|
D|----5------7-----9--9--9--9----|

Guitar 2
[11]- ghost note
e|--------------------------------------------|
B|--------------------------------------------|
G|--------------------------------14----------|
D|------------------12--11-----12-----11-12b--|
A|------11b-[11b]----------14-----------------|
D|--------------------------------------------|


Guitar 1- Palm Mute
Play each measure through twice before going into the next
e|-----------------------------|----------------------------|
B|-----------------------------|----------------------------|
G|-----------------------------|----------------------------|
D|-----------------------------|----------------------------|
A|--------77--4-5------77--4-5-|------4-7-4-5-----4-7-4-5---|
D|---55-------------55---------|-99------------99-----------|

Guitar 2
[11]- ghost note
e|-------------------------------------------|
B|-------------------------------------------|
G|-------------------------------14----------|
D|-----------------12--11-----12-----11-12b--|
A|------11b-[11b]----------14----------------|
D|-------------------------------------------|


Pre Chorus 2

Guitar 1
e|-----------------------|
B|-----------------------|
G|-----------------------|
D|----5--5----7---9--9---|
A|----5--5----7---9--9---|
D|----5--5----7---9--9---|

Guitar 2
e|----------------------------|
B|-----0--0----0-0--0--0---0-0|
G|-----11-11---9-9--12-12--9-9|
D|----------------------------|
A|----------------------------|
D|----------------------------|

Guitar 1- silent
Guitar 2 slight little pause before the chorus comes back in
e|-------------------|
B|---00--0-----------|
G|---44--7---0-0-0---|
D|-----------4-5-4---|
A|-------------------|
D|-------------------|

Outro

Guitar 1
e|------------------------------------------------------------------------|
B|------------------------------------------------------------------------|
G|-------------------------14----------------------------14----16-12-11b--|
D|------------12-11-----12------------------12-11-----12------------------|
A|---11b-[11]--------14---------12--11-[11]-------14----------------------|
D|------------------------------------------------------------------------|
Suggest correction
Creating personal tab
Creating personal tab
You can edit any tab online and save it as your Personal.

You can edit, replace or remove any tab part or add personal notes – all changes will be seen only by you.

Personal tabs can be accessed anytime from any device, even offline.
Learn more »
comments
print report bad tab
8 comments total. Showing first comments.
+1 reply
eblood21 43 Apr 14, 2007 05:07 AM

hey most of this is correct...but you formatted the tabs so bad, that its hard to read them. none of the numbers are lined up so you cant even tell what you should be playing. try and fix it please

0 reply
HH_Emo_666 242 Apr 14, 2007 06:14 AM

yea .. i was gunna comment saying to fix the tabs and line them up ..

it looks like a good tab .. but i bet if you do that itll look even better

0 reply
BassistOath 304 May 19, 2007 10:25 AM

some of the lyrics are wrong like this is where we both go wrong now. should be numb. and some of the tabs are hard to understand so i gave u a 3 star. becuz most songs play well but on the first one i was lost. so yeah.

guest
You may want to rate the tab now too:
select rating
Wanna post a correction for this tab? Suggest correction