Oops, an error
Loading. Please wait.

Too Bright To See Too Loud To Hear tab

version 2
version 2

Whole song

Interactive

21,019 views 33 this week
3 commentsread comments
1 2 3 4 5
x 8
add to favorites
×
Save as Personal and add changes to this tab that will be seen only by you. Learn more ›
×
You can save this tab as Personal to edit and correct it or add notes. All changes will be seen only by you. Learn more »
launch autoscroll
font size
0
reset
how to read this tab
guitar tuner
edit
Autoscroll
slow
fast
+/-
esc
set tempo
stop
Artist: UnderOath
Song: Too Bright To See, Too Loud To Hear
Album: Lost In The Sound Of Separation (2008)
Tabbed by: fret136@hotmail.com
Tuning: Dropped D

Another awesome song by Underoath.
Everything here is perfect you just may have
to figure some strumming out by yourself and if
anything sounds wrong i may have it written down
wrong since i was in Dropped A# and just put a capo
on my guitar haha. So comment and let me know if any
thing is wrong.

Both Guitars are played with Heavy Delay

Guitar 1
|--|
|--|
|--|
|--|
|--|
|--|

Intro

|------------------------------------|
|------------------------------------|
|---------------------7--------------|
|-----0~----0--------------0------0~-|
|---3-----------5---------------3----|
|-1-------5---5----10---10----1------|

Verse 1

|------------------------------------|x3
|------------------------------------|
|---------------------7--------------|
|-----0~----0--------------0------0~-|
|---3-----------5---------------3----|
|-1-------5---5----10---10----1------|

|-----|
|-----|
|-0-3-|
|-----|
|-----|
|-----|

Verse 2

|---------------------------------------|
|---------------------------------------|
|---------------------7-----------------|
|-------0~---0-------------0------0-----|
|-----3----------5--------------3-------|
|-1-1------5---5---10---10----1------1~-|

Verse 3 - sorry about the strumming and
how many times its played =\

|-------------------------------|
|---------(12)------------------|
|-3--2--5---7-------0-----0---0-|
|-0--0--0---0-------0-----0---0-|
|-x--x--x---x---3-3---3-3---3---|
|-1--1--5--10---1-1---1-1---1---|

Verse 4

|-----------------------|x12
|-----------------------|
|-----------------------|
|-----------------------|
|-----5---5---5---5---5-|
|-0h1---3---3---3---3---|

Verse 5 - this is the part Spencer comes in

|-----------------------|x8
|-----------------------|
|-----------0-0-0-0-0-0-|
|-----------0-0-0-0-0-0-|
|-----5---5-5-5-5-5-5-5-|
|-0h1---3---3-3-3-3-3-3-|

Outro

|---------------------|
|---------------------|
|------------------0~-|
|---------------------|
|---5--------5--------|
|-1---3~---1---3~-----|
===========================================================

Guitar 2

Intro - doesn't play

Verse 1 - comes in second time
|---------------------------1-------------|
|---------------7~----3---3---3-----------|
|-----7~------3-----5---5---------3~------|
|---5-------5-------------------5---------|
|-6-----------------------------------3-5-|
|-----------------------------------------|

|---------------------------1-------------|
|---------------7~----3---3---3-----------|
|-----7~------3-----5---5---------3~--5h7-|
|---5-------5-------------------5---------|
|-6---------------------------------------|
|-----------------------------------------|

Verse 2

|---------------------------------------|x2
|---------------------------------------|
|---------0---0--------7--7--7---0------|
|---------0---0--0--0--0--0--0---0------|
|-----3---3---5------------------3------|
|-1-1-1-1-1-5---10-10-10-10-10-1-----1~-|

Verse 3 - comes in third time

|-------15-------------------------|x3
|----15----15----15----15----------|
|-------------17----17----17-15----|
|-17----------------------------17-|
|----------------------------------|
|----------------------------------|

Verse 4

|-6---------------------|x not sure =\
|---8---8---8---8---8---|
|-----7---7---7---7---7-|
|-----------------------|
|-----------------------|
|-----------------------|

Verse 5

|-----------------------|x8
|-----------------------|
|-----------0-0-0-0-0-0-|
|-----------0-0-0-0-0-0-|
|-----5---5-5-5-5-5-5-5-|
|-0h1---3---3-3-3-3-3-3-|

Outro

|---------------------|
|---------------------|
|------------------3~-|
|---------------------|
|---5--------5--------|
|-1---3~---1---3~-----|

====================================================


I plan on having a tutorial video up on youtube or
UG by tomorrow of this because some parts are hard
to distinguish by just looking at a tab.

Cheers

            
            
Suggest correction
Creating personal tab
Creating personal tab
You can edit any tab online and save it as your Personal.

You can edit, replace or remove any tab part or add personal notes – all changes will be seen only by you.

Personal tabs can be accessed anytime from any device, even offline.
Learn more »
comments
print report bad tab
3 comments total.
+1 reply
Sam Rulez D00d 938 Apr 13, 2010 03:32 PM

nice tab (i rated 5*),
but i found one mistake:
for "guitar 2", the 7's on the b string for the verse should be 6's.

but yeah, good tab. any chance of making a guitar pro version? i've been wanting to play this at my church but we need full sheet music with vocals and stuff. think u could help me out?

+1 reply
JayMorales 72 Aug 21, 2010 07:31 AM

|-------------------------------------|
|-------------------------------------|
|-------------------------------------|
|-----0~--------------12----0------0~-|
|---3-------5---5---------------3-----|
|-1-------5---5----10---10----1-------|

^^^ i find this much easier

0 reply
Aliens-exist182 60 Nov 28, 2011 03:39 AM

The chords that come in during the verse after the whole intro thing were such a bitch, I couldn't figure it out haha, thanks for this man, this tab's ****ing boss!

guest
You may want to rate the tab now too:
select rating
Wanna post a correction for this tab? Suggest correction