Oops, an error
Loading. Please wait.

Writing On The Walls tab

version 3
version 3

Whole song

Interactive

4,120 views 1 this week
2 commentsread comments
1 2 3 4 5
x 3
add to favorites
×
Save as Personal and add changes to this tab that will be seen only by you. Learn more ›
×
You can save this tab as Personal to edit and correct it or add notes. All changes will be seen only by you. Learn more »
launch autoscroll
font size
0
reset
how to read this tab
guitar tuner
edit
Autoscroll
slow
fast
+/-
esc
set tempo
stop
Underoath-Writing On The Walls-
From:-Define The Great Line-
Copyright © 2006 Tooth & Nail Records
Drop D Tuning D-A-D-G-B-E

sd=slide down
h=hammer on
p=pull off
s=slide
b=bend
palm mute=...etc.

Intro
E[-8----8----------------]
B[-6----6-----8----10----]
G[-7----7----10----10----]
D[-x----5-----8----10----]
A[-5---------------------]x2
D[-----------------------]

Verse 1
Gtr. 1
E[-5-5-5-3-3-3-3-3---10--12--10--12--10-10--15--20--15--17--15-15----]
B[--6-6-6-6-6-6-6-6-13-13---13-13---13-13--18-18---18-18---18-18-----]
G[-------------------------------------------------------------------]
D[-------------------------------------------------------------------]
A[-------------------------------------------------------------------]
D[-------------------------------------------------------------------]

E[--17--15--17--15---------]
B[-18-18---18-18---15sd----]
G[-------------------------]
D[-------------------------]
A[-------------------------]
D[-------------------------]

E[-5-5-5-3-3-3-3-3---10--12--10--12--10-10--15--20--15--17--15-15----]
B[--6-6-6-6-6-6-6-6-13-13---13-13---13-13--18-18---18-18---18-18-----]
G[-------------------------------------------------------------------]
D[-------------------------------------------------------------------]
A[-------------------------------------------------------------------]
D[-------------------------------------------------------------------]

E[--17--15--17--15---------]
B[-18-18---18-18---15sd----]
G[-------------------------]
D[-------------------------]
A[-------------------------]
D[-------------------------]

Gtr. 2
E[-8----8----------------]
B[-6----6-----8----10----]
G[-7----7----10----10----]
D[-x----5-----8----10----]
A[-5---------------------]x2
D[-----------------------]

Pre-Chorus
Gtr. 1
E[--------0---0--0---------0--0-0-0-0-0-0-0----]
B[--------6--10--8---------6--6-6-6-6-6-6-6----]
G[-7-7-7------------7-7-7-----5-5h7-7p5-5h7----]
D[-x-x-x------------x-x-x-----5-5-5-5-5-5-5----]
A[-5-5-5------------5-5-5----------------------]x2
D[---------------------------------------------]

Gtr. 2
E[-------------------------]
B[-------------------------]
G[-7-10-9----7-2-5---12----]
D[-x--x-x----x-x-x----x----]
A[-5--8-7----5-0-3---10----]x2
D[-------------------------]

Chorus
Gtr. 1
E[-8---------------0------0--]
B[-6---------------6------3--]
G[-7----7s9-9--12------------]
D[-x----xsx-x---x------------]
A[-5----5s7-7--10------------]x2
D[---------------------------]

Gtr. 2
E[-0-0-0--8----5---5-5--0----]
B[-6-6-6--6----6---6-6--6----]
G[-5-5h7--7----7---7p5-------]
D[---------------------------]
A[---------------------------]x2
D[---------------------------]

Interlude
Gtr. 1
E[-------k--------------17----13--13--13--13----------]
B[-------e----------------15---15--15--15--15--15b----]
G[-------y------------------17--17--17--17--17-17b----]
D[-0/0-0-b-------0/0-0--------------------------------]
A[-0/0-0-o-------0/0-0--------------------------------]
D[-0/0-0-ard-----0/0-0--------------------------------]

E[-------------------------]
B[-------------------------]
G[--------9------9/12-9----]
D[-0/0-0--x------x--x-x----]
A[-0/0-0--8------8--8-8----]x4
D[-0/0-0-------------------]

Gtr. 2
E[--------------------------------------k---------10-10b----]
B[---------------------------------------e--------15-15b----]
G[----------------------------------------y-----------------]
D[-0/0-0-3-3-3-3-3-3-3-3-3-3-3-3-3-0/0-0---b----------------]
A[-0/0-0--7-7-7-7-7-7-7-7-5-5-5-5--0/0-0----o---------------]
D[-0/0-0---------------------------0/0-0-----ard------------]

E[------------------------------------]
B[------------------------------------]
G[------------------------------------]
D[-0/0-0-3-3-3-3-3-3-3-3-3-3-3-3-3----]
A[-0/0-0--7-7-7-7-7-7-7-7-5-5-5-5-----]x4
D[-0/0-0------------------------------]

Then Both Guitars
E[----------]
B[----------]
G[----------]
D[-0/0-0----]
A[-0/0-0----]
D[-0/0-0----]

Bridge
Gtr. 1
E[-------------5-3-------0--------]
B[-----------------6sd-3---3s8----]
G[-10--7--------------------------]
D[-10--7--0-----------------------]
A[--8--5--0-3h5-------------------]
D[--8--5--0-----------------------]

E[----------------]
B[----------------]
G[-10--7----------]
D[-10--7--0--0----]
A[--8--5--0--0----]x5
D[--8--5--0--0----]

Gtr. 2
E[----------------]
B[----------------]
G[-10--7----------]
D[-10--7--0--0----]
A[--8--5--0--0----]
D[--8--5--0--0----]

E[------------------------]
B[------------------------]
G[-10--7-----7--7s9-10----]
D[-10--7--0--x--xsx--x----]
A[--8--5--0--5--5s7--8----]
D[--8--5--0---------------]

E[---------------10----17--------------17----]
B[-----------6-8----------15-13--13-15-------]
G[-7-10-9------------------------------------]
D[-------------------------------------------]
A[-------------------------------------------]x4
D[-------------------------------------------]

Gtr. 3(or Keyboard???)
(Gtr. 3 starts after Gtr. 2's first Riff)
E[-----8--------------]
B[---6------6-8-5-----]
G[-7------------------]
D[--------------------]
A[--------------------]
D[--------------------]
Wait a while 
E[-------------------------------------]
B[---10--13-10--10--------13-10--10----]
G[------------10----10-12------10------]
D[-12----------------------------------]
A[-------------------------------------]x4
D[-------------------------------------]
Then
FEEDBACK and Keyboard
Even though this is the guitar part U can kinda hear.
Gtr. 1
E[-------------------------]
B[-------------------------]
G[-------------------------]
D[-------------------------]
A[-5--7--8----17--12--5----]x4
D[-------------------------]

Gtr. 2
E[-----------------------------------]
B[-----------------------------------]
G[-----------------------------------]
D[------------12--10--7----7--5-3----]
A[-5--7--8---------------------------]x4
D[-----------------------------------]

Ending
Gtr. 1
E[-------0-----------------------------]
B[-------6-----------------------------]
G[-------------------------------------]
D[-0/0-0---0/0/0-0--0/0-0---0/0/0-0----]
A[-0/0-0---0/0/0-0--0/0-0---0/0/0-0----]
D[-0/0-0---0/0/0-0--0/0-0---0/0/0-0----]

E[-------0-----------------------------]
B[-------6-----------------------------]
G[-------------------------------------]
D[-0/0-0---0/0/0-0--0/0-0---0/0-3-0----]
A[-0/0-0---0/0/0-0--0/0-0---0/0-7-0----]
D[-0/0-0---0/0/0-0--0/0-0---0/0---0----]
                            ...   .
Gtr. 2
E[-------------------------------------]
B[-------------------------------------]
G[-------------------------------------]
D[-0/0-0---0/0/0-0--0/0-0---0/0/0-0----]
A[-0/0-0---0/0/0-0--0/0-0---0/0/0-0----]
D[-0/0-0---0/0/0-0--0/0-0---0/0/0-0----]

E[-------------------------------------]
B[-------------------------------------]
G[-------------------------------------]
D[-0/0-0---0/0/0-0--0/0-0---0/0-3-0----]
A[-0/0-0---0/0/0-0--0/0-0---0/0-7-0----]
D[-0/0-0---0/0/0-0--0/0-0---0/0---0----]
                            ...   .


Awesome song!! Enjoy. Please Rate 

Tabbed by Adam K

            
            
Suggest correction
Creating personal tab
Creating personal tab
You can edit any tab online and save it as your Personal.

You can edit, replace or remove any tab part or add personal notes – all changes will be seen only by you.

Personal tabs can be accessed anytime from any device, even offline.
Learn more »
Give kudos to tab author, rate the tab!
1 2 3 4 5
comments
print report bad tab
2 comments total.
0 reply
86th fret 31 Sep 20, 2006 12:57 PM

This tab is really wrong, and the parts that are right are the same as the other tab, but on different strings.

0 reply
fret13 1,031 Sep 20, 2006 03:48 PM

yeah a i agree

guest
You may want to rate the tab now too:
select rating
Wanna post a correction for this tab? Suggest correction