Oops, an error
Loading. Please wait.

Youre Ever So Inviting Tab

version 1
version 1

Whole song

Interactive

16,560 views 1 this week
10 commentsread comments
1 2 3 4 5
worth learning
x 12
add to favorites
launch autoscroll
font size
0
reset
how to read this tab
guitar tuner
Autoscroll
slow
fast
+/-
esc
set tempo
stop
Help us to improve Ultimate-Guitar.com Take our survey!
×
Difficulty
Tuning
novice
D A D G B E
Tabbed by: Dylan Payne
Artist:Underoath
Song:You're Ever So Inviting         Tuning:Drop D-DADGBE
Album:2006 Define The Great Line

This Is a very easy song to learn.This is also my first tab,But I am almost 95% sure it 
Good.
 Intro
e-----------------------|
b-----------------------|
g-9--------10----11-----|
d-x(x37)---x(x8)-x(x8)--|
a-7--------8-----9------|
d-----------------------|

Chorus guitar 1
e------------------------------|
b------------------------------|
g------------------------------|
d-2-----3-----5------0-0-xx-0--|x4
a-2(x8)-3(x8)-5(x12)-0-0-xx-0--|
d-2-----3-----5------0-0-xx-0--|

Chorus guitar 2
e--------------------------------------------------------| The third time
b--------------------------------------------------------| guitar 1 comes in
g-14----12----17----9-----10----7-----5-----12----14-----| guitar 2 come in
d-x(x8)-x(x8)-x(x8)-x(x8)-x(x8)-x(x8)-x(x4)-x(x4)-x(x16)-|  with this
a-12----10----15----7-----8-----5-----3-----10----12-----|
d--------------------------------------------------------|


verse  Both guitars
e---------------------|
b---------------------|
g---------------------|
d-0------3-----5-2-7--|x2
a-0~-----3~----5-2-7--|
d-0------3-----5-2-7--|

Pre-Chorus Both guitars
e-------------------------------------------|
b-------------------------------------------|
g-12-----10-----5------7-----12-----14------|
d-x(x12)-x(x12)--x(x8)-x(x8)-x(x12)-x(x12)--|
a-10-----8------3------5-----10-----12------|
d-------------------------------------------|

Back to chorus-this time only x2 and no guitar 2 part.
Back to verse
e-------------------------------------|
b-------------------------------------|
g-17-15-17-15-19-----------7-5-7-5-3--|This time in verse,guitar 2 does this
d-------------------------------------|
a-------------------------------------|
d-------------------------------------|

Interlude  Both guitars
e--------------------------------------------------|
b--------------------------------------------------|
g-------------------------------------------7------|
d-3------5------0------3------5------0------x(x15)-|
a-3(x15)-5(x15)-0(x32)-3(x15)-5(x15)-0(x32)-5------|
d-3------5------0------3------5------0-------------|


Back to chorus-x8-first 2 times are without any distortion
-
Breakdown
e--------------------------------------|
b--------------------------------------|
g--------------------------------------|
d-7-5-3----10-----------7-5-3-------12-|x4
a--------------------------------------|
d--------------------------------------|

  Guitar 1
e----------------------|
b----------------------|
g----------------------|
d-0-5-5-5-5-5-5--5xx3--|x8
a-0-5-5-5-5-5-5--5xx3--|
d-0-5-5-5-5-5-5--5xx3--|


Guitar 2
e------------------------|    on the fifth time guitar
b------------------------|    1 comes in, guitar 2 comes
g------------------------|x3  in with this.
d-7-3-7-3-7---7-3-7-3-2--|
a------------------------|
d------------------------|

outro
e--------|
b--------|
g--------|
d--7-3-2-|
a--7-3-2-|
d--7-3-2-|
Suggest correction
comments
print report bad tab
10 comments total. Showing first comments.
0 reply
eblood21 43 wrote on July 8 2006, 10:33 am

well done

+3 reply
mattwilham 241 wrote on July 11 2006, 01:05 am

the first intro chord should be one of these two with gradual bend:

e|----------------
b|----------------
g|---9-----9------
d|---x-----0------
a|---5------------
D|----------------

+3 reply
mattwilham 241 wrote on July 11 2006, 01:12 am

oh, and guitar 1 verse chords shouldnt be 2 3 5 open. it should be open, 3, 8, 5. not trying to be mean, or put you down..just trying to help you and everyone else. sorry if it seems like im being a jerk.

guest
You may want to rate the tab now too:
select rating
Please do not post tabs as comments. Select "correction" instead!