Oops, an error
Loading. Please wait.

Youre Ever So Inviting bass

version 2
version 2

Whole song

Interactive

1,146 views 1 this week
no commentswrite comment
1 2 3 4 5
x 3
add to favorites
×
Save as Personal and add changes to this tab that will be seen only by you. Learn more ›
×
You can save this tab as Personal to edit and correct it or add notes. All changes will be seen only by you. Learn more »
launch autoscroll
font size
0
reset
guitar tuner
edit
Autoscroll
slow
fast
+/-
esc
set tempo
stop
Tuning: Drop D

The other bass tab for this was wrong so I'd thought I'd try it.


|-------------------------------------------------------------------------|
|-----------------------0/12-12-12-12-12-12-12-12-12-12-12-12-12-12-12-12-|
|-------------------------------------------------------------------------|
|-0~----------------------------------------------------------------------|


|-------------------------------------|
|-------------------------------------|
|-------------------11111111----------|
|-00000000-33333333----------55555555-|x4


*I think there's little fills on this part, if i figure them out I'll
update it.
|---------------------------------------|
|---------------------------------------|
|-------------------1~------------------|
|-0~--------------------------5~--------|x2


|--------------------------------------------------------------------|
|--------------------------------------------------------------------|
|-1111111111111111-3333333333333333----------------------------------|
|-----------------------------------55555555555555555555555555555555-|

|-----------------------------|
|-----------------------------|
|-1111111111111111-333333333x-|
|-----------------------------|


|-------------------------------------|
|-------------------------------------|
|-------------------11111111----------|
|-00000000-33333333----------55555555-|x2


*I think there's fills here too, but I think they're different then the
other ones though.
|---------------------------------------|
|---------------------------------------|
|-------------------1~------------------|
|-0~--------------------------5~--------|x2


|--------------------------------------------------------------------|
|--------------------------------------------------------------------|
|-1111111111111111-3333333333333333----------------------------------|
|-----------------------------------55555555555555555555555555555555-|x2


Pause.


|-------------------------------------|
|-------------------------------------|
|-------------------11111111----------|
|-00000000-33333333----------55555555-|x4


|--------------------------------------------------|
|--------------------------------------------------|
|---------------------------1-(repeat-with-guitar)-|
|-0~-----------------------------------------------|


|------------------------|
|------------------------|
|----1~------------1-----|
|-0-------------------5--|x8

|------------------------|
|------------------------|
|----1--1~---------------|
|-0----------------------|

            
            
Suggest correction
Creating personal tab
Creating personal tab
You can edit any tab online and save it as your Personal.

You can edit, replace or remove any tab part or add personal notes – all changes will be seen only by you.

Personal tabs can be accessed anytime from any device, even offline.
Learn more »
Give kudos to tab author, rate the tab!
1 2 3 4 5
comments
print report bad tab
guest
You may want to rate the tab now too:
select rating
Wanna post a correction for this tab? Suggest correction