Oops, an error
Loading. Please wait.

Youre Ever So Inviting tab

version 3
version 3

Whole song

Interactive

55 views 3 this week
no commentswrite comment
1 2 3 4 5
2 more votes to show rating
add to favorites
×
Save as Personal and add changes to this tab that will be seen only by you. Learn more ›
×
You can save this tab as Personal to edit and correct it or add notes. All changes will be seen only by you. Learn more »
launch autoscroll
font size
0
reset
how to read this tab
guitar tuner
edit
Autoscroll
slow
fast
+/-
esc
set tempo
stop
[You're Ever So Inviting]
[Define The Great Line]
[Underoath]

Tuning: D A D G B E
Playthrough: https://www.youtube.com/watch?v=31KAXkYy5ps


[Riff 1, Guitar 1 & 2] - [00:00] - [00:10]
- -----------------------------------------------------------------
- -----------------------------------------------------------------
- -7-7-7-7-7-7-7-7-7-7-7-7-7-7-7-7-7-7-7-7-7-7-7-7-7-7-7-7-7-7-7-7-
- -x-x-x-x-x-x-x-x-x-x-x-x-x-x-x-x-x-x-x-x-x-x-x-x-x-x-x-x-x-x-x-x-
- -5-5-5-5-5-5-5-5-5-5-5-5-5-5-5-5-5-5-5-5-5-5-5-5-5-5-5-5-5-5-5-5-
- -----------------------------------------------------------------
-
- -0-0-0-0-0-0-0-0-0-0-0-0-0-0-0-0-0-0-0-0-0-0-0-0-0-0-0-0-0-0-0-0-
- -5-5-5-5-5-5-5-5-5-5-5-5-5-5-5-5-5-5-5-5-5-5-5-5-5-5-5-5-5-5-5-5-
- -----------------------------------------------------------------
- -----------------------------------------------------------------
- -----------------------------------------------------------------
- -----------------------------------------------------------------


- -----------------------------------------------------------------
- -----------------------------------------------------------------
- -7-7-7-7-7-7-7-7-7-7-7-7-7-7-7-7-7-7-7-7-7-7-7-7-7-7-7-7-7-7-----
- -x-x-x-x-x-x-x-x-x-x-x-x-x-x-x-x-x-x-x-x-x-x-x-x-x-x-x-x-x-x-12\-
- -5-5-5-5-5-5-5-5-5-5-5-5-5-5-5-5-5-5-5-5-5-5-5-5-5-5-5-5-5-5-12\-
- -------------------------------------------------------------12\-
-
- -0-0-0-0-0-0-0-0-0-0-0-0-0-0-0-0-0-0-0-0-0-0-0-0-0-0-0-0-0-0-----
- -5-5-5-5-5-5-5-5-5-5-5-5-5-5-5-5-5b5b5b5b5b5b5b5b5b5b5b5b5b5b----slowly bend and hold note
- -----------------------------------------------------------------
- -------------------------------------------------------------12\-
- -------------------------------------------------------------12\-
- -------------------------------------------------------------12\-

[Riff 2a] - [00:10] - [00:32] - [x4]
- -----0---0-0-0-8---8-8---8-8-8--------------------------------------------
- -----6---6-6-6-6---6-6---6-6-6---------------------10---10-10-10----------
- -----7---7-7-7-7---7-7---7-7-7-------10---10-10-10-10---10-10-10----------
- -0---0---0-0-0-0---0-0---0-0-0---8---12---12-12-12-8----8--8--8---x-5-5\--
- -0---0---0-0-0-------------------8---8----8--8--8--8----8--8--8---x-5-5\--
- -0---0---0-0-0-------------------8---8----8--8--8--8----8--8--8---x-5-5\--

[Riff 2b] - [00:21] - [00:32]
- ---------------------------------------------------------------------
- -----------------------------13--------------------------------------
- -5/--14----------12--------------------------------------------------
- -----------------------------------------14--------------------------
- ---------------------------------------------------------------------
- ---------------------------------------------------------------------

- -----------------------------------------------------------------
- -----------------------------------------------------------------
- -------------------------12--------------------------------------
- -12----------10--------------------------------------------------
- -------------------------------------12--------------------------
- -----------------------------------------------------------------


[Riff 3, Guitar 1 & 2] - [00:32] - [00:53]
- -------------------------5-------------------------------0-------
- -------------------3-------------3---------3/----6\-----/8-------
- -------------5-----------------------5------/----9\--------------
- -----------------------------------------------------------------
- -------3/5-------------------------------------------------------
- -0---------------------------------------------------------------
-
- -----------------------------------------------------------------
- -----------------------------------------------------------------
- -----------------------------------------------------------------
- -7-------0-------------------------------0-----------0-----------
- -----8---------------------------10/-12------12\-8---------------
- -----------------------------------------------------------------


- -----------------------------------------------------------------
- -----------------------------------------------------------------
- -----------------------------------------------------------------
- -----------------------------------------------------------------
- -8------------------/10---------\7----------/12--------------\---
- -----------------------------------------------------------------
-
- -----------------------------------------------------------------
- -----------------------------------------------------------------
- -----------------------------------------------------------------
- ---------0-------------------------------0-----------------------
- -----8-------------------------------5---------------------------
- -8-------------------------------5-------------------------------


- -------------------------5-----------------------0-----0-----0---
- -------------------3-------------3/--6\----3/----10\---8/----10--
- -------------5-------------------5/--9\----5/--------------------
- -----------------------------------------------------------------
- -------3/5-------------------------------------------------------
- -0---------------------------------------------------------------
-
- -----------------------------------------------------------------
- -----------------------------------------------------------------
- -----------------------------------------------------------------
- -7-------0-----------------------0-----------0-------------------
- -----8----------/10---------/12------12\-8----------\7-----------
- -----------------------------------------------------------------


- -------------------------------------------------------------------------
- -------------------------------------------------------------------------
- ------------------------------------------------/14-14-14-14-14-14-14-14-
- -------------------------------------------------x--x--x--x--x--x--x--x--
- -8------------------/10---------\7--------------/12-12-12-12-12-12-12-12-
- -------------------------------------------------------------------------
-
- -------------------------------------------------------------------------
- -------------------------------------------------------------------------
- -------------------------------------------------7--7--7--7--7--7--7--7--
- ---------0-------------------------------0-------x--x--x--x--x--x--x--x--
- -----8-------------------------------5-----------5--5--5--5--5--5--5--5--
- -8-------------------------------5---------------------------------------


[Riff 4, Guitar 1 & 2] - [00:53] - [01:09]
- -----------------------------------------------------------------
- -----------------------------------------------------------------
- -12(x16)-------------------------12(x8)---------9(x8)------------
- -x-------------------------------10-------------10---------------
- -10------------------------------8--------------7----------------
- -----------------------------------------------------------------
-
- -----------------------------------------------------------------
- ---------------------------------10------------------------------
- -9-------------------------------10------------------------------
- -8(x16)--------------------------14(x16)-------------------------
- -8---------------------------------------------------------------
- -8---------------------------------------------------------------


- -----------------------------------------------------------------
- -----------------------------------------------------------------
- -5(x24)------------------------------------------5/7-7-7-7-7-7-7-
- -x-----------------------------------------------x-x-x-x-x-x-x-x-
- -3-----------------------------------------------3/5-5-5-5-5-5-5-
- -----------------------------------------------------------------
-
- -----------------------------------------------------------------
- -----------------------------------------------------------------
- -----------------------------------------------------------------
- -7(x32)----------------------------------------------------------
- -5---------------------------------------------------------------
- -5---------------------------------------------------------------


- -----------------------------------------------------------------
- -------------------------------------------------10--------------
- -12(x16)-------------------------12(x9)----------x---------------
- -x-------------------------------10--------------7b--------------
- -10------------------------------8-------------------------------
- -----------------------------------------------------------------
-
- -----------------------------------------------------------------
- ---------------------------------10--------------10--------------
- -9-------------------------------10--------------x---------------
- -8(x16)--------------------------14(x9)----------7b--------------
- -8---------------------------------------------------------------
- -8---------------------------------------------------------------


[Riff 2a] - [01:09] - [01:20] - [x2]


[Riff 5, Guitar 1 & 2] - [01:20] - [01:41]
- -------------------------------------------8-----10----8---------
- -------------------3/----6-----8-----10--------------------------
- -------------5------/----9---------------------------------------
- -------------------------------------------------------7b-------- <-- second guitar, leads into next part
- -------3/5-------------------------------------------------------
- -0---------------------------------------------------------------
-
- -----------------------------------------------------------------
- -----------------------------------------------------------------
- -----------------------------------------------------------------
- -7-------0-------------------------------0-----------0-----------
- -----8---------------------------10/-12------12\-8-------7-------
- -----------------------------------------------------------------


- -----------------------------------------------------------------
- -----------------------------------------------------------------
- -----------------------------------------------------------------
- -----------------------------------------------------------------
- -8------------------/10---------\7------------------/12----------
- -----------------------------------------------------------------
-
- -----------------------------------------------------------------
- -----------------------------------------------------------------
- -----------------------------------------------------------------
- ---------0-------------------------------0-----------------------
- -----8-------------------------------5---------------------------
- -8-------------------------------5-------------------------------


- -------------------------5---------------------------------------
- -------------------3-----------------------6------\----3---------
- -------------5-----------------5----/9-----------9\----5---------
- -----------------------------------------------------------------
- -------3/5-------------------------------------------------------
- -0---------------------------------------------------------------
-
- -----------------------------------------------------------------
- -----------------------------------------------------------------
- -----------------------------------------------------------------
- -7-------0-----------0-----------0-----------0-----------0-------
- -----8----------/10---------/12---------/17---------\15----------
- -----------------------------------------------------------------


- -----------------------------------------------------------------
- -----------------------------------------------------------------
- -----------------------------------------------------------------
- -----------------------------------------------------------------
- -8------------------/10---------\7------------------\3-----------
- -----------------------------------------------------------------
-
- -----------------------------------------------------------------
- -----------------------------------------------------------------
- -----------------------------------------------------------------
- ---------0-------------------------------2---3-----------2-------
- -----8-------------------------------5---------------------------
- -8-------------------------------5-------------------------------


[Riff 6, Guitar 1 & 2] - [01:41] - [02:03]
- -----------------------------------------------------------------
- -----------------------------------------------------------------
- -----------------------------------------------------------------
- -3-3-3-3-3-3-3-3-3-3-3-3-3-3-3-3-5-5-5-5-5-5-5-5-5-5-5-5-5-5-5-5-
- -1-1-1-1-1-1-1-1-1-1-1-1-1-1-1-1-3-3-3-3-3-3-3-3-3-3-3-3-3-3-3-3-
- -----------------------------------------------------------------
PM ...............................................................
- -----------------------------------------------------------------
- -6-6-6-6-6-6-6-6-6-6-6-6-6-6-6-6-5-5-5-5-5-5-5-5-5-5-5-5-5-5-5-5-
- -5-5-5-5-5-5-5-5-5-5-5-5-5-5-5-5-5-5-5-5-5-5-5-5-5-5-5-5-5-5-5-5-
- -----------------------------------------------------------------
- -----------------------------------------------------------------
- -----------------------------------------------------------------
PM ...............................................................


- -----------------------------------------------------------------
- -----------------------------------------------------------------
- -----------------------------------------------------------------
- -----------------------------------------------------------------
- -5-5-5-5-5-5-5-5-5-5-5-5-5-5-5-5-5-5-5-5-5-5-5-5-5-5-5-5-5-5-5-5-
- -5-5-5-5-5-5-5-5-5-5-5-5-5-5-5-5-5-5-5-5-5-5-5-5-5-5-5-5-5-5-5-5-
PM ...............................................................
- -----------------------------------------------------------------
- -3-3-3-3-3-3-3-3-3-3-3-3-3-3-3-3-6-6-6-6-6-6-5-5-6-6-5-5-6-6-5-5-
- -5-5-5-5-5-5-5-5-5-5-5-5-5-5-5-5-5-5-5-5-5-5-5-5-5-5-5-5-5-5-5-5-
- -----------------------------------------------------------------
- -----------------------------------------------------------------
- -----------------------------------------------------------------
PM ...............................................................


- -----------------------------------------------------------------
- -----------------------------------------------------------------
- -----------------------------------------------------------------
- -3-3-3-3-3-3-3-3-3-3-3-3-3-3-3-3-5-5-5-5-5-5-5-5-5-5-5-5-5-5-5-5-
- -1-1-1-1-1-1-1-1-1-1-1-1-1-1-1-1-3-3-3-3-3-3-3-3-3-3-3-3-3-3-3-3-
- -----------------------------------------------------------------
PM ...............................................................
- -----------------------------------------------------------------
- -6-6-6-6-6-6-6-6-6-6-6-6-6-6-6-6-5-5-5-5-5-5-5-5-5-5-5-5-5-5-5-5-
- -5-5-5-5-5-5-5-5-5-5-5-5-5-5-5-5-5-5-5-5-5-5-5-5-5-5-5-5-5-5-5-5-
- -----------------------------------------------------------------
- -----------------------------------------------------------------
- -----------------------------------------------------------------
PM ...............................................................


- ---------------------------------------------------------------------------------
- ---------------------------------------------------------------------------------
- ---------------------------------------------------------------------------------
- ---------------------------------5-5-5-5-5-5-5-5-5-5-5-5-5-5-5-5-5\--------------
- -5-5-5-5-5-5-5-5-5-5-5-5-5-5-5-5-5-5-5-5-5-5-5-5-5-5-5-5-5-5-5-5-5\--------------
- -5-5-5-5-5-5-5-5-5-5-5-5-5-5-5-5-5-5-5-5-5-5-5-5-5-5-5-5-5-5-5-5-5\--------------
PM ...............................
- ---------------------------------8-8-8-8-8-8-8-8-8-8-8-8-8-8-8-8-----------------
- -3-3-3-3-3-3-3-3-3-3-3-3-3-3-3-3-x-x-x-x-x-x-x-x-5-5-5-5-5-5-5-5-----------------
- -5-5-5-5-5-5-5-5-5-5-5-5-5-5-5-5-5-5-5-5-5-5-5-5-5-5-5-5-5-5-5-5-----------------
- -----------------------------------------------------------------5\--------------
- -----------------------------------------------------------------5\--------------
- -----------------------------------------------------------------5\--------------
PM ................................


[Riff 2a] - [02:02] - [02:34] - [x4]

[Riff 7] - [02:12] - [02:13]
- -0---------------
- -0---------------
- -0--------------- hit all the strings behind the nut and let it ring out
- -0---------------
- -0---------------
- -0---------------

[Riff 2b] - [02:23] - [02:34]


[Riff 8, Guitar 1 & 2] - [02:34] - [02:45]
- -----------------------------------------------------------------
- ---------------------------------6-------------------------------
- ---------------------------------9------------------------------- first note fades out
- -0--------------------------------------------------------------- second note fades in
- -----------------------------------------------------------------
- -----------------------------------------------------------------
-
- -----------------------------------------------------------------
- -----------------------------------------------------------------
- ---------------------------------9------------------------------- first note fades out
- -0-------------------------------7------------------------------- second note fades in
- ---------------------------------5-------------------------------
- -----------------------------------------------------------------


[Riff 9, Guitar 1 & 2] - [02:45] - [03:06]
- -----------------------------------------------------------------
- -----------------------------------------------------------------
- -------------------5-------------------------------7-------------
- -7-------------------------------7-------------------------------
- -------10------------------------------10------------------------
- -----------------------------------------------------------------
-
- -----------------------------------------------------------------
- -----------------------------------------------------------------
- -----------------------------------------------------------------
- -----------------------------------------------------------------
- -5-5-5-5-5-5-5-5-5-5-5-5-5-5-5-5-5-5-5-5-5-5-5-5-5-5-5-5-5-5-5-5-
- -8-8-8-8-8-8-8-8-8-8-8-8-8-8-8-8-8-8-8-8-8-8-8-8-8-8-8-8-8-8-8-8-
PM ...............................................................


- -----------------------------------------------------------------
- -----------------------------------------------------------------
- -------------------5-------------------------------7-------------
- -7-------------------------------7-------------------------------
- -------10------------------------------10------------------------
- -----------------------------------------------------------------
-
- -----------------------------------------------------------------
- -----------------------------------------------------------------
- -----------------------------------------------------------------
- -----------------------------------------------------------------
- -5-5-5-5-5-5-5-5-5-5-5-5-5-5-5-5-5-5-5-5-5-5-5-5-5-5-5-5-5-5-5-5-
- -8-8-8-8-8-8-8-8-8-8-8-8-8-8-8-8-8-8-8-8-8-8-8-8-8-8-8-8-8-8-8-8-
PM ...............................................................


- -----------------------------------------------------------------
- -----------------------------------------------------------------
- -------------------5-------------------------------7-------------
- -7-------------------------------7-------------------------------
- -------10------------------------------10------------------------
- -----------------------------------------------------------------
-
- -----------------------------------------------------------------
- -----------------------------------------------------------------
- -----------------------------------------------------------------
- -----------------------------------------------------------------
- -5-5-5-5-5-5-5-5-5-5-5-5-5-5-5-5-5-5-5-5-5-5-5-5-5-5-5-5-5-5-5-5-
- -8-8-8-8-8-8-8-8-8-8-8-8-8-8-8-8-8-8-8-8-8-8-8-8-8-8-8-8-8-8-8-8-
PM ...............................................................


- -----------------------------------------------------------------
- -----------------------------------------------------------------
- -------------------5---------------9-9-9-9-9-9-9-9-9-9-9-9-9-9-9-
- -7---------------------------------7-7-7-7-7-7-7-7-7-7-7-7-7-7-7-
- -------10--------------------------5-5-5-5-5-5-5-5-5-5-5-5-5-5-5-
- -----------------------------------------------------------------
-
- -----------------------------------------------------------------
- -----------------------------------------------------------------
- -----------------------------------7-7-7-7-7-7-7-7-7-7-7-7-7-7-7-
- -----------------------------------x-x-x-x-x-x-x-x-x-x-x-x-x-x-x-
- -5-5-5-5-5-5-5-5-5-5-5-5-5-5-5-5-5-5-5-5-5-5-5-5-5-5-5-5-5-5-5-5-
- -8-8-8-8-8-8-8-8-8-8-8-8-8-8-8-8-8-8-8-8-8-8-8-8-8-8-8-8-8-8-8-8-
PM .................................


[Riff 10, Guitar 1 & 2] - [03:06] - [03:28] - [x4]
- -----------------------------------------------------------------
- -----------------------------------------------------------------
- -9-----9-----9-----9-----9-----9-----9-----9-----9---------------
- -0-----8-----8-----8-----8-----8-----8-----8-----8---x-7-7\------
- -0-----8-----8-----8-----8-----8-----8-----8-----8---x-5-5\------
- -0-----8-----8-----8-----8-----8-----8-----8-----8---x-5-5\------
-
- -----------------------------------------------------------------
- -----------------------------------------------------------------
- -7---------------------------------------------------------------
- -x-----7-----7-----7-----7-----7-----7-----7-----7---x-7-7\------
- -5-----5-----5-----5-----5-----5-----5-----5-----5---x-5-5\------
- -0-----8-----8-----8-----8-----8-----8-----8-----8---x-5-5\------


{Riff 11a, Guitar 1 & 2] - [03:28] - [04:10]
- -----------------------------------------------------------------
- -----------------------------------------------------------------
- -9-----9-----9-----9-----9-----9-----9-----9-----9---------------
- -0-----8-----8-----8-----8-----8-----8-----8-----8---x-7-7\------
- -0-----8-----8-----8-----8-----8-----8-----8-----8---x-5-5\------
- -0-----8-----8-----8-----8-----8-----8-----8-----8---x-5-5\------
-
- -----------------------------------------------------------------
- -----------------------------------------------------------------
- -7---------------------------------------------------------------
- -x-----7-----7-----7-----7-----7-----7-----7-----7---x-7-7\------
- -5-----5-----5-----5-----5-----5-----5-----5-----5---x-5-5\------
- -0-----8-----8-----8-----8-----8-----8-----8-----8---x-5-5\------


- -----------------------------------------------------------------
- -----------------------------------------------------------------
- -9-----9-----9-----9-----9-----9-----9-----9---------------------
- -0-----8-----8-----8-----8-----8-----8-----8-----x-5-5---x-5-5---
- -0-----8-----8-----8-----8-----8-----8-----8-----x-5-5---x-5-5---
- -0-----8-----8-----8-----8-----8-----8-----8-----x-5-5---x-5-5---
-
- -----------------------------------------------------------------
- -----------------------------------------------------------------
- -7---------------------------------------------------------------
- -x-----7-----7-----7-----7-----7-----7-----7-----x-5-5---x-5-5---
- -5-----5-----5-----5-----5-----5-----5-----5-----x-5-5---x-5-5---
- -0-----8-----8-----8-----8-----8-----8-----8-----x-5-5---x-5-5---


- -----------------------------------------------------------------
- -----------------------------------------------------------------
- -9-----------9-----9-----9-----9-----9-----9-----9---------------
- -0-----------8-----8-----8-----8-----8-----8-----8---x-7-7\------
- -0-----8-----8-----8-----8-----8-----8-----8-----8---x-5-5\------
- -0-----8-----8-----8-----8-----8-----8-----8-----8---x-5-5\------
-PM      .
- -----------------------------------------------------------------
- -----------------------------------------------------------------
- -7---------------------------------------------------------------
- -x-----------7-----7-----7-----7-----7-----7-----7---x-7-7\------
- -5-----5-----5-----5-----5-----5-----5-----5-----5---x-5-5\------
- -0-----8-----8-----8-----8-----8-----8-----8-----8---x-5-5\------
PM       .


- -----------------------------------------------------------------
- -----------------------------------------------------------------
- -9-----9-----9---------------------------------------------------
- -0-----8-----8---------------------------------------------------
- -0-----8-----8---------------------------------------------------
- -0-----8-----8---------------------------------------------------
-
- -----------------------------------------------------------------
- -----------------------------------------------------------------
- -7---------------------------------------------------------------
- -x-----7-----7---------------------------------------------------
- -5-----5-----5---------------------------------------------------
- -0-----8-----8---------------------------------------------------


[Riff 11b] - [03:26] - [04:10]
- ---------------------------------------------------------------------------------
- ---------------------------------------------------------------------------------
- -----------------14\---9/----14\---9-----9-------14\---9/----14\---10----10------
- -x-x-x-x-x-x-x-x-x-----x-----x-----x-----x-------x-----x-----x-----x-----x-------
- -x-x-x-x-x-x-x-x-12\---7/----12\---7-----7-------12\---7/----12\---8-----8-------
- -x-x-x-x-x-x-x-x-----------------------------------------------------------------

- ---------------------------------------------------------------------
- ---------------------------------------------------------------------
- -14\---9/----14\---9-----9-------14\---9/----14--x-12-12---x-12-12---
- -x-----x-----x-----x-----x-------x-----x-----x---x-x--x----x-x--x----
- -12\---7/----12\---7-----7-------12\---7/----12--x-10-10---x-10-10---
- ---------------------------------------------------------------------

- -----------------------------------------------------------------
- -----------------------------------------------------------------
- -14\---9/----14\---9-----9-------14\---9/----14\---10----10------
- -x-----x-----x-----x-----x-------x-----x-----x-----x-----x-------
- -12\---7/----12\---7-----7-------12\---7/----12\---8-----8-------
- -----------------------------------------------------------------

- ---------------------------------------------------------------------
- ---------------------------------------------------------------------
- -14\---9/----14\---9-----9-------14\---9/----14--x-12-12---x-12-12---
- -x-----x-----x-----x-----x-------x-----x-----x---x-x--x----x-x--x----
- -12\---7/----12\---7-----7-------12\---7/----12--x-10-10---x-10-10---
- ---------------------------------------------------------------------

- ---------------------------------
- ---------------------------------
- -14\---10\---9-------------------
- -x-----x-----x-------------------
- -12\---10\---7-------------------
- ---------------------------------

[Symbols]

PM... Palm Mute notes with (...) under them
AP... Alternate Pick notes with (...) under them
h     Hammer On
p     Pull Off
[ ]   Harmonic
/     Slide Up
\     Slide Down
x     Dead Note
b     Bend
hb    Hold Bend
pb    Pre-Bend
r     Release Bend
(x )  Play Notes x amount of times
~     Let Ring
\\\   Pick Slide Down
///   Pick Slide Up
/ 3 \ Notes are triplets (3 notes in the space of two)
w\    Whammy Bar Down
w/    Whammy Bar Up
wh    Whammy Bar Hold
T     Right Hand Tap
L     Left Hand Tap

:)

            
            
Suggest correction
Creating personal tab
Creating personal tab
You can edit any tab online and save it as your Personal.

You can edit, replace or remove any tab part or add personal notes – all changes will be seen only by you.

Personal tabs can be accessed anytime from any device, even offline.
Learn more »
Give kudos to tab author, rate the tab!
1 2 3 4 5
comments
print report bad tab
guest
You may want to rate the tab now too:
select rating
Wanna post a correction for this tab? Suggest correction