Oops, an error
Loading. Please wait.

Grave Of Opportunity tab

version 1
version 1

Whole song

Interactive

by Unearth
13,423 views 12 this week
3 commentsread comments
1 2 3 4 5
x 6
add to favorites
×
Save as Personal and add changes to this tab that will be seen only by you. Learn more ›
×
You can save this tab as Personal to edit and correct it or add notes. All changes will be seen only by you. Learn more »
launch autoscroll
font size
0
reset
how to read this tab
guitar tuner
backing track
0:00
0:00
edit
Autoscroll
slow
fast
+/-
esc
set tempo
stop
Band   : Unearth
Song   : Grave of Opportunity
Album  : The March

Hey everyone. This song is Definately hard to learn by ear haha.
This is my first tab that i've done so i might have made some mistakes
here and there. I haven't quite learned the solo yet or figured out the
bridge so I'll just give you what i know so far of it and pretty soon i
should have the solo finished. But it's a fun song to play. Any questions
or comments are more than welcome. Hope everyone enjoys :p


Tuning 7 string standard. (B,E,A,D,G,B,E) This song doesnt use the top string
though so if you don't have a seven string you can just tune it down to (B,E,A,D,G,B)

Intro/ Chorus

I'm not sure about the rhythm (Guitar II) to this. I think its right but I'm
not sure. While i am making the tab i just hurried and put the chords
together but I'm not 100%. Let me know what you guys think.

Repeat 2x. Rhythem Let guitar ring 2nd time

    Gtr I
E|-----------------------------------------------------|
B|-----------------------------------------------------|
G|-----------------------------------------------------|
D|--9----9h11h12--11-9-----9-9-11-11h12p11p9-9h11p9----|
A|----12---------------12--------------------------12--|
E|-----------------------------------------------------|
B|-----------------------------------------------------|
 |  Gtr II
E|-----------------------------------------------------|
B|-----------------------------------------------------|
G|-----------------------------------------------------|
D|--7--------------7-9-9-------------------------------|
A|--7--------------7-9-9-------------------------------|
E|--5--------------5-7-7-------------------------------|
B|-----------------------------------------------------|


    Gtr I
E|----------------------------------------------------|
B|----------------------------------------------------|
G|----------------------11~--9------------------------|
D|--9----9h11h12---11-9--------12-11---12-11h12p11p9--|
A|----12----------------------------------------------|
D|----------------------------------------------------|
B|----------------------------------------------------|
 |  Gtr II
E|----------------------------------------------------|
B|----------------------------------------------------|
G|----------------------------------------------------|
D|--9---------------9-7-7-----------------------------|
A|--9---------------9-7-7-----------------------------|
E|--7---------------7-5-5-----------------------------|
B|----------------------------------------------------|


    Gtr I
E|-----------------------------------------------------|
B|-----------------------------------------------------|
G|-----------------------------------------------------|
D|--9----9h11h12--11-9-----9-9-11-11h12p11p9-9h11p9----|
A|----12---------------12--------------------------12--|
E|-----------------------------------------------------|
B|-----------------------------------------------------|
 |  Gtr II
E|-----------------------------------------------------|
B|-----------------------------------------------------|
G|-----------------------------------------------------|
D|--7-------------7-7-9--------------------------------|
A|--7-------------7-7-9--------------------------------|
E|--5-------------5-5-7--------------------------------|
B|-----------------------------------------------------|


    Gtr I
E|-------------------------------------------------|
B|-------------------------------------------------|
G|---------------------/9~-------------------------|
D|--9----9h11h12--11-9-----12-11-9--11-9h11p9(p7)--|
A|----12-------------------------------------------|
E|-------------------------------------------------|
B|-------------------------------------------------|
 |  Gtr II
E|-------------------------------------------------|
B|-------------------------------------------------|
G|-------------------------------------------------|
D|-------------------------------------------------|
A|--2-2-2-2-2-2-2-2-2-2-2-2-2-2-2-2-2-2-2-2-2-2----|
E|--2-2-2-2-2-2-2-2-2-2-2-2-2-2-2-2-2-2-2-2-2-2----|
B|--0-0-0-0-0-0-0-0-0-0-0-0-0-0-0-0-0-0-0-0-0-0----|
      . . . . . . . . . . . . . . . . .

Verse

E|-------------------------------------------------------|
B|-------------------------------------------------------|
G|-------------------------------------------------------|
D|-------------------------------------------------------|
A|---------------------------------------7h8p7p5---------|
E|-------7----7h8p7p5----7-----7h8p7p5----------8p7p5h7--|
B|--0000---000--------00---000---------00----------------|
    ....   ...        ..   ...         ..

E|-------------------------------------------------------|
B|-------------------------------------------------------|
G|-------------------------------------------------------|
D|-------------------------------------------------------|
A|-------------------------------------------------------|
E|-------7----7h8p7p5----7-----7h8p7p5----5h7p5----------|
B|--0000---000--------00---000---------00-------8p7p5h7--|
    ....   ...        ..   ...         ..


Breakdown type thing in verse  2x

E|--------------------------|-------------------------------------|
B|--------------------------|-------------------------------------|
G|--------------------------|-------------------------------------|
D|--------------------------|-------------------------------------|
A|--222222---2---2222---2---|--222222---2---2222--7h8p7p5---------|
E|--222222---2---2222---2---|--222222---2---2222---------8p7p5h7--|
B|--000000---0---0000---0---|--000000---0---0000------------------|
    ......   .   ....  .       ......   .   ....

Interlude
Might be wrong but it's pretty close i think. 2x clean then lead does 2x distorted. 
does once then (Fig 1.) 4 times

E|--------------------------------------|
B|--------------------------------------|
G|--------------------------------------|
D|-------------------9------7-----------|
A|------9---10-9---9---10-----9---7-10--|
E|----7---7------7--------7-----7-------|
B|--0-----------------------------------|

E|--------------------------------------|
B|--------------------------------------|
G|--------------------------------------|
D|--------------------------------------|
A|------9---10-9---9-5-----7------------|
E|----7---7------7-----7-----9---9-10---|
B|--0--------------------0-----0--------|

E|--------------------------------------|
B|--------------------------------------|
G|--------------------------------------|
D|-------------------9------7-----------|
A|------9---10-9---9---10-----9---7-10--|
E|----7---7------7--------7-----7-------|
B|--0-----------------------------------|

E|--------------------------------------|
B|--------------------------------------|
G|--------------------------------------|
D|--------------------------------------|
A|------9---10-9---9-----5------7-------|
E|----7---7------7-----7------9---9-----|
B|--0----------------8-----10-------10--|
 |
 |  Gtr II
E|--------------------------------------|
B|--------------------------------------|
G|--/4-4-4-4-4-4-4-4-/7-7-7-7-/9-9-9-9--|
D|--/x-x-x-x-x-x-x-x-/x-x-x-x-/x-x-x-x--|
A|--/2-2-2-2-2-2-2-2-/5-5-5-5-/7-7-7-7--|
E|--------------------------------------|
B|--------------------------------------|

Solo Coming soon!!
The Rhythem to the solo is just the breakdown.

Outro

E|--------------------------------|
B|--------------------------------|
G|--------------------------------|
D|--9----11-12----11-9-----9-9~~--|
A|----12---------------12---------|
E|--------------------------------|
B|--------------------------------|

Order: Chorus, Verse, Breakdown, Verse, Chorus, Interlude, Solo, Breakdown, Verse, Chorus.


Legend:
~ = Either vibrato or just let ring
p = pull off
h = hammer on
/ = slide
x = mute string
. = palm mute


Any comments or mistakes found are more than welcome. If you have any questions feel 
to ask. I will get back to you.
My Email is tnolwj@hotmail.com. Thanks and enjoy.

By 1manbandtan

            
            
Suggest correction
Creating personal tab
Creating personal tab
You can edit any tab online and save it as your Personal.

You can edit, replace or remove any tab part or add personal notes – all changes will be seen only by you.

Personal tabs can be accessed anytime from any device, even offline.
Learn more »
comments
print report bad tab
3 comments total.
0 reply
IRONMAIDENTLICA 100 Jun 24, 2010 07:02 AM

Sounds pretty Accurate to me

0 reply
dj bowron 27 Jul 13, 2014 04:14 AM

hey mate i noticed with the interlude
E|--------------------------------------|
B|--------------------------------------|
G|------------------4-----2-------------|
D|------4---5-4---4---4-----4---2-5-----|
A|----2---2-----2-------2-----2---------|
E|--------------------------------------|
B|--0-----------------------------------|

E|--------------------------------------|
B|--------------------------------------|
G|--------------------------------------|
D|------4---5-4---4-0-----2-------------|
A|----2---2-----2-----4-----4---4-5-----|
E|----------------------5-----5---------|
B|--0-----------------------------------|

E|--------------------------------------|
B|--------------------------------------|
G|------------------4-----2-------------|
D|------4---5-4---4---4-----4---2-5-----|
A|----2---2-----2-------2-----2---------|
E|--------------------------------------|
B|--0-----------------------------------|

E|--------------------------------------|
B|--------------------------------------|
G|--------------------------------------|
D|------4---5-4---4-----0-----4---------|
A|----2---2-----2-----2-----4---4-------|
E|------------------3-----5-------5-----|
B|--0-----------------------------------|

0 reply
dj bowron 27 Jul 13, 2014 04:15 AM

hey mate i noticed with the interlude
E|--------------------------------------|
B|--------------------------------------|
G|------------------4-----2-------------|
D|------4---5-4---4---4-----4---2-5-----|
A|----2---2-----2-------2-----2---------|
E|--------------------------------------|
B|--0-----------------------------------|

E|--------------------------------------|
B|--------------------------------------|
G|--------------------------------------|
D|------4---5-4---4-0-----2-------------|
A|----2---2-----2-----4-----4---4-5-----|
E|----------------------5-----5---------|
B|--0-----------------------------------|

E|--------------------------------------|
B|--------------------------------------|
G|------------------4-----2-------------|
D|------4---5-4---4---4-----4---2-5-----|
A|----2---2-----2-------2-----2---------|
E|--------------------------------------|
B|--0-----------------------------------|

E|--------------------------------------|
B|--------------------------------------|
G|--------------------------------------|
D|------4---5-4---4-----0-----4---------|
A|----2---2-----2-----2-----4---4-------|
E|------------------3-----5-------5-----|
B|--0-----------------------------------|

guest
You may want to rate the tab now too:
select rating
Wanna post a correction for this tab? Suggest correction