Oops, an error
Loading. Please wait.

This Glorious Nightmare tab

version 1
version 1

Whole song

Interactive

by Unearth
5,387 views 3 this week
3 commentsread comments
1 2 3 4 5
2 more votes to show rating
add to favorites
×
Save as Personal and add changes to this tab that will be seen only by you. Learn more ›
×
You can save this tab as Personal to edit and correct it or add notes. All changes will be seen only by you. Learn more »
launch autoscroll
font size
0
reset
how to read this tab
guitar tuner
edit
Autoscroll
slow
fast
+/-
esc
set tempo
stop
Author
-----------------------------------------------------------------------------
THIS GLORIOUS NIGHTMARE – Unearth
-----------------------------------------------------------------------------
Tabbed by: 7stringdude
I havent tabbed anything in 6 months and still havent seen this song tabbed.
I've seen videos on youtube but no one is showing their tabs; so here is my version. PM 
any mistakes or misunderstandings.

0:00 RIFF A PLAYED 2X        PM……………………………………          PM……………………………………
e|--------------------------------------------------------------------------|
B|--------------------------------------------------------------------------|
G|--------------------------------------------------------------------------|
D|--------------------------------------------------------------------------|
A|------------------------9\------------------9--7-10—9---------------------|
E|------------------------7\------------------7--5--8—7---------------------|
B|---------------------------0-00000-0-00000------------0 00000-0-00000-----|

               PM…………………………………
e|--------------------------------------------------------------------------|
B|--------------------------------------------------------------------------|
G|--------------------------------------------------------------------------|
D|------14--13--------------------------------------------------------------|
A|9--7—--x---x------------------9--7-10-10\9--9-10---7---5------------------|
E|7--5--12--11------------------7—-5--8--8\7—-7--8---5---3------------------|
B|-------------0-00000-0-00000----------------------------------------------|

0:20 RIFF B PLAYED 2X                                                                    
                                                                                        
       PM………                    ………        ……………                    1,3
e|----------------------------------------------|---------------------------|
B|----------------------------------------------|---------------------------|
G|----------------------------------------------|---------------------------|
D|----------------------------------------------|------10-9-10-7-10----9----|
A|----------------------------------------------|-------------------10------|
E|7---9-10-9------9-10--12-10-9-10--7----9-10-9-|77777----------------------|
B|-----------00000--------------------000-------|---------------------------|
 |
 |           PM………                    ………        ……………                    1,3
e|----------------------------------------------|---------------------------|
B|----------------------------------------------|---------------------------|
G|----------------------------------------------|---------------------------|
D|----------------------------------------------|---------------------------|
A|----------------------------------------------|------10-9-10-7-10----9----|
E|7---9-10-9------9-10--12-10-9-10--7----9-10-9-|-------------------10------|
B|-----------00000--------------------000-------|77777----------------------|


                                         2,4
e|--------5h10p5--------------7h12p7--------|-------------------------------|
B|-------6------6------------8------8-------|-------------------------------|
G|------7--------7----------9--------9------|-------------------------------|
D|-----7----------7--------9----------9-----|-------------------------------|
A|--5h8------------8p5-7h10------------10p7-|-------------------------------|
E|------------------------------------------|-------------------------------|
B|------------------------------------------|-------------------------------|



0:41 RIFF C
   PM ……     …… ……      ……      …… ……      …… ……     …… ……
e|--------------------------------------------------------------------------|
B|--------------------------------------------------------------------------|
G|--------------------------------------------------------------------------|
D|--------------------------------------------------------------------------|
A|-------6--6------7--7----5--5-------6--6-------4--4-----------------------|
E|-------7--7------8--8----6--6-------7--7-------6--6-----------------------|
B|-00-00-----00-00------00------00-00------00-00-----00-00------------------|
 |
 | PM ……                        …… ……
e|--------------------------------------------------------------------------|
B|--------------------------------------------------------------------------|
G|--------------------------------------------------------------------------|
D|--------------------------------------------------------------------------|
A|--------------------------------------------------------------------------|
E|--------------------------------------------------------------------------|
B|-00-00------------------------00-00---------------------------------------|


   PM ……     …… ……      ……      …… ……      …… ……     …… ……
e|----------------------------------------------------------------------------|
B|----------------------------------------------------------------------------|
G|----------------------------------------------------------------------------|
D|----------------------------------------------------------------------------|
A|-------6--6------7--7----5--5-------6--6-------4--4-------------------------|
E|-------7--7------8--8----6--6-------7--7-------6--6-------------------------|
B|-00-00-----00-00------00------00-00------00-00-----00-00--------------------|
 |
 | PM …                         …… ……      …… ……     …… ……
e|--------------------------------------------------------------------------|
B|--------------------------------------------------------------------------|
G|--------------------------------------------------------------------------|
D|--------------------------------------------------------------------------|
A|--------------------------------------------------------------------------|
E|--------------------------------------------------------------------------|
B|-O0-00-LET THE NOTE RING -----00-00------00-00-----00-00------------------|


0:54 BOTH GUITARS
   PM ……     …… ……      ……      …… ……      …… ……     …… ……
e|--------------------------------------------------------------------------|
B|--------------------------------------------------------------------------|
G|--------------------------------------------------------------------------|
D|--------------------------------------------------------------------------|
A|-------6--6------7--7----5--5-------6--6-------4--4-----------------------|
E|-------7--7------8--8----6--6-------7--7-------6--6-----------------------|
B|-00-00-----00-00------00------00-00------00-00-----00-00------------------|


   PM ……     …… ……      ……      …… ……      …… ……     …… ……
e|--------------------------------------------------------------------------|
B|--------------------------------------------------------------------------|
G|--------------------------------------------------------------------------|
D|--------------------------------------------------------------------------|
A|-------6--6------7--7----5--5-------6--6-------4--4-----------------------|
E|-------7--7------8--8----6--6-------7--7-------6--6-----------------------|
B|-00-00-----00-00------00------00-00------00-00-----00-00------------------|

   PM ……     …… ……      ……      …… ……      …… ……     …… ……
e|--------------------------------------------------------------------------|
B|--------------------------------------------------------------------------|
G|--------------------------------------------------------------------------|
D|--------------------------------------------------------------------------|
A|-------6--6------7--7----5--5-------6--6-------4--4-----------------------|
E|-------7--7------8--8----6--6-------7--7-------6--6-----------------------|
B|-00-00-----00-00------00------00-00------00-00-----00-00------------------|


   PM ……     …… ……      ……      …… ……      …… ……     …… …
e|--------------------------------------------------------------------------|
B|--------------------------------------------------------------------------|
G|--------------------------------------------------------------------------|
D|--------------------------------------------------------------------------|
A|-------6--6------7--7----5--5-------6--6-------4--4-----------------------|
E|-------7--7------8--8----6--6-------7--7-------6--6------LET NOTES RING---|
B|-00-00-----00-00------00------00-00------00-00-----00-00—THEN-PICK-SCRATCH|

1:24 REPEAT RIFF A


1:33                         PM……………………………………          PM……………………………………
e|--------------------------------------------------------------------------|
B|--------------------------------------------------------------------------|
G|--------------------------------------------------------------------------|
D|--------------------------------------------------------------------------|
A|------------------------9-------------------9--7-10—9---------------------|
E|------------------------7-------------------7--5--8—7---------------------|
B|---------------------------0-00000-0-00000------------0 00000-0-00000-----|


              PM…………………………………
e|--------------------------------------------------------------------------|
B|--------------------------------------------------------------------------|
G|--------------------------------------------------------------------------|
D|------14--13--------------------------------------------------------------|
A|9--7---x---x----------------9--7-10--4---5---7---5---7---9----------------|
E|7--5--12--11----------------7—-5--8--2---3---5---3---5---7----------------|
B|------------0-00000-0-00000-----------------------------------------------|



1:41 RIFF D 2x

e|--------------------------------------------------------------------------|
B|--------------------------------------------------------------------------|
G|--------------------------------------------------------------------------|
D|--------------------------------------------------------------------------|
A|---------------------------------5-4-x-x-4-5-x-x-x-5-7-x-x-7-9------------|
E|---10-9---5-7---------5-7-5----------x-x-2-3-x-x-x-3-5-x-x-5-7------------|
B|00-----000---0000-5-8-------5-00-----x-x-----x-x-x-----x-x----------------|


1:53 RIFF D HARMONIZED
e|--------------------------------------------------------------------------|
B|--------------------------------------------------------------------------|
G|--------------------------------------------------------------------------|
D|--------------------------------------------------------------------------|
A|---------------------------------5-4-x-x-4-5-x-x-x-5-7-x-x-7-9------------|
E|---10-9---5-7---------5-7-5----------x-x-2-3-x-x-x-3-5-x-x-5-7------------|
B|00-----000---0000-5-8-------5-00-----x-x-----x-x-x-----x-x----------------|
 |
 |
e|--------------------------------------------------------------------------|
B|--------------------------------------------------------------------------|
G|--------------------------------------------------------------------------|
D|9-----------------11----------9---------/12--------11---------------------|
A|---TREMOLO PICK -NOTES----------------------------------------------------|
E|--------------------------------------------------------------------------|
B|--------------------------------------------------------------------------|

e|--------------------------------------------------------------------------|
B|--------------------------------------------------------------------------|
G|--------------------------------------------------------------------------|
D|--------------------------------------------------------------------------|
A|---------------------5--2--4-----5-4-x-x-4-5-x-x-x-5-7-x-x-7-9------------|
E|---10-9---5-7--------3--0--2---------x-x-2-3-x-x-x-3-5-x-x-5-7------------|
B|00-----000--------------------00-----x-x-----x-x-x-----x-x----------------|
 |
 |
e|--------------------------------------------------------------------------|
B|--------------------------------------------------------------------------|
G|--------------------------------------------------------------------------|
D|9-----------------11----------9---------/12--------11---------------------|
A|---TREMOLO-PICK-NOTES-----------------------------------------------------|
E|--------------------------------------------------------------------------|
B|--------------------------------------------------------------------------|

2:05
        PM………………
e|--------------------------------------------------------------------------|
B|--------------------------------------------------------------------------|
G|--------------------------------------------------------------------------|
D|--------------------------------------------------------------------------|
A|--------------------9-7-5\4-7-5-4---4-------------------------------------|
E|-7-5-7---------7-5-7--------------5---7-5-7-------------------------------|
B|------000-0-000-----------------------------------------------------------|
 |
 |
e|--------------------------------------------------------------------------|
B|--------------------------------------------------------------------------|
G|--------------------------------------------------------------------------|
D|--------------------------------------------------------------------------|
A|0------------feedback-----------------------------------------------------|
E|0-------------------------------------------------------------------------|
B|0-------------------------------------------------------------------------|




  PM………………
e|--------------------------------------------------------------------------|
B|--------------------------------------------------------------------------|
G|-------------------4-7-6-------6------------------------------------------|
D|-----------------4-------7-4-7---7-4--------------------------------------|
A|---------------5----------------------------------------------------------|
E|---------7-5-7------------------------------------------------------------|
B|000-0-000-----------------------------------------------------------------|
 |
e|--------------------------------------------------------------------------|
B|--------------------------------------------------------------------------|
G|--------------------------------------------------------------------------|
D|--------------------------------------------------------------------------|
A|-------------feedback--continued------------------------------------------|
E|--------------------------------------------------------------------------|
B|--------------------------------------------------------------------------|


        PM…………………
e|--------------------------------------------------------------------------|
B|--------------------------------------------------------------------------|
G|--------------------------------------------------------------------------|
D|--------------------------------------------------------------------------|
A|--------------------9-7-5\4-7-5-4---4-------------------------------------|
E|-7-5-7---------7-5-7--------------5---7-5-7-------------------------------|
B|------000-0-000-----------------------------------------------------------|
 |
 |
e|--------------------------------------------------------------------------|
B|--------------------------------------------------------------------------|
G|--------------------------------------------------------------------------|
D|--------------------------------------------------------------------------|
A|--------feedback-continued------------------------------------------------|
E|--------------------------------------------------------------------------|
B|--------------------------------------------------------------------------|


        PM…………………
e|--------------------------------------------------------------------------|
B|--------------------------------------------------------------------------|
G|--------------------------------------------------------------------------|
D|--------------------------------------------------------------------------|
A|--------------------9-7-5-7-5-4-9-----------------------------------------|
E|-7-5-7---------7-5-7------------------------------------------------------|
B|------000-0-000-----------------------------------------------------------|
 |
 |
e|--------------------------------------------------------------------------|
B|--------------------------------------------------------------------------|
G|--------------------------------------------------------------------------|
D|--------------------------------------------------------------------------|
A|--pick-scrape-------9-7-5-7-5-4-9-----------------------------------------|
E|-----/////////-7-5-7------------------------------------------------------|
B|-----/////////------------------------------------------------------------|



2:18 RIFF F PLAYED 2X
       PM………………………………………………………………………………………………………
e|--------------------------------------------------------------------------|
B|--------------------------------------------------------------------------|
G|--------------------------------------------------------------------------|
D|--------------------------------------------------------------------------|
A|--------------------------------------------------------------------------|
E|7-5-7------------------------------------------7-5-7----------------------|
B|-----000-0-000-000-0-0-0-0-0-000-0-000-000-0-0----------------------------|


  PM…………………
e|--------------------------------------------------------------------------|
B|--------------------------------------------------------------------------|
G|--------------------------------------------------------------------------|
D|--------------------------------------------------------------------------|
A|----------------9-7-5\4-7-5-4---4-----------------------------------------|
E|----------7-5-7---------------5-------------------------------------------|
B|000-0-000-----------------------------------------------------------------|

2:32
                    PM…………      ……………
e|--------------------------------------------------------------------------|
B|--------------------------------------------------------------------------|
G|--------------------------------------------------------------------------|
D|9-7-5-7-5---5------------10-9-------5-7-9---------------------------------|
A|----------9---9-7---------------------------------------------------------|
E|------------------7-9-10------9-7-5---------------------------------------|
B|--------------------------------------------------------------------------|
 |
e|--------------------------------------------------------------------------|
B|--------------------------------------------------------------------------|
G|--------------------------------------------------------------------------|
D|----------------------10----------14--------------------------------------|
A|----------------------x-----------x---------------------------------------|
E|----------------------8-----------12--------------------------------------|
B|--------------------------------------------------------------------------|


                    PM…………     ………………
e|--------------------------------------------------------------------------|
B|--------------------------------------------------------------------------|
G|--------------------------------------------------------------------------|
D|9-7-5-7-5---5-------------------------------------------------------------|
A|----------9---9-7--------7-7----------------------------------------------|
E|------------------7-9-10-----7-9-10-10-8-7--------------------------------|
B|--------------------------------------------------------------------------|
 |
e|--------------------------------------------------------------------------|
B|--------------------------------------------------------------------------|
G|--------------------------------------------------------------------------|
D|------------------7---------------10--------------------------------------|
A|------------------x---------------x---------------------------------------|
E|------------------5---------------8---------------------------------------|
B|--------------------------------------------------------------------------|


                    PM…………      ……………
e|--------------------------------------------------------------------------|
B|--------------------------------------------------------------------------|
G|--------------------------------------------------------------------------|
D|9-7-5-7-5---5------------10-9-------5-7-9---------------------------------|
A|----------9---9-7---------------------------------------------------------|
E|------------------7-9-10------9-7-5---------------------------------------|
B|--------------------------------------------------------------------------|
 |
e|--------------------------------------------------------------------------|
B|--------------------------------------------------------------------------|
G|--------------------------------------------------------------------------|
D|--------------------------------------------------------------------------|
A|------------------7-----------5-------------------------------------------|
E|------------------5-----------3-------------------------------------------|
B|--------------------------------------------------------------------------|

e|--------------------------------------------------------------------------|
B|--------------------------------------------------------------------------|
G|--------------------------------------------------------------------------|
D|9-7-5-7-5---5------------5------------7-----------------------------------|
A|----------9---9-7--5-7-9---9-7-7-9-10---10-9------------------------------|
E|--------------------------------------------------------------------------|
B|--------------------------------------------------------------------------|
 |
e|--------------------------------------------------------------------------|
B|--------------------------------------------------------------------------|
G|--------------------------------------------------------------------------|
D|--------------------------------------------------------------------------|
A|-------------------5------------------------------------------------------|
E|-------------------3-----------5------------------------------------------|
B|-------------------------------3------------------------------------------|

2:43                PM…………      ……………
e|--------------------------------------------------------------------------|
B|--------------------------------------------------------------------------|
G|--------------------------------------------------------------------------|
D|9-7-5-7-5---5------------10-9-------5-7-9---------------------------------|
A|----------9---9-7---------------------------------------------------------|
E|------------------7-9-10------9-7-5---------------------------------------|
B|--------------------------------------------------------------------------|
 |
e|--------------------------------------------------------------------------|
B|--------------------------------------------------------------------------|
G|--------------------------------------------------------------------------|
D|9-----------------10----------14------------------------------------------|
A|x-----------------x-----------x-------------------------------------------|
E|7-----------------8-----------12------------------------------------------|
B|--------------------------------------------------------------------------|




                    PM…………     ………………
e|--------------------------------------------------------------------------|
B|--------------------------------------------------------------------------|
G|--------------------------------------------------------------------------|
D|9-7-5-7-5---5-------------------------------------------------------------|
A|----------9---9-7--------7-7----------------------------------------------|
E|------------------7-9-10-----7-9-10-10-8-7--------------------------------|
B|--------------------------------------------------------------------------|
 |
e|--------------------------------------------------------------------------|
B|--------------------------------------------------------------------------|
G|--------------------------------------------------------------------------|
D|13----------------10---------13-------------------------------------------|
A|x-----------------x----------x--------------------------------------------|
E|11----------------8----------11-------------------------------------------|
B|--------------------------------------------------------------------------|


                    PM…………      ……………
e|--------------------------------------------------------------------------|
B|--------------------------------------------------------------------------|
G|--------------------------------------------------------------------------|
D|9-7-5-7-5---5------------10-9-------5-7-9---------------------------------|
A|----------9---9-7---------------------------------------------------------|
E|------------------7-9-10------9-7-5---------------------------------------|
B|--------------------------------------------------------------------------|
 |
e|--------------------------------------------------------------------------|
B|--------------------------------------------------------------------------|
G|--------------------------------------------------------------------------|
D|9-----------------7-----------10------------------------------------------|
A|x-----------------x-----------x-------------------------------------------|
E|7-----------------5-----------8-------------------------------------------|
B|--------------------------------------------------------------------------|

e|--------------------------------------------------------------------------|
B|--------------------------------------------------------------------------|
G|--------------------------------------------------------------------------|
D|9-7-5-7-5---5------------5------------7-----------------------------------|
A|----------9---9-7--5-7-9---9-7-7-9-10---10-9------------------------------|
E|--------------------------------------------------------------------------|
B|--------------------------------------------------------------------------|
 |
e|--------------------------------------------------------------------------|
B|--------------------------------------------------------------------------|
G|--------------------------------------------------------------------------|
D|--------------------------------------------------------------------------|
A|--------------------------------------------------------------------------|
E|0-------------------------------------------------------------------------|
B|0-------------------------------------------------------------------------|



2:55                PM…………      ……………
e|--------------------------------------------------------------------------|
B|--------------------------------------------------------------------------|
G|--------------------------------------------------------------------------|
D|9-7-5-7-5---5------------10-9-------5-7-9---------------------------------|
A|----------9---9-7---------------------------------------------------------|
E|------------------7-9-10------9-7-5---------------------------------------|
B|--------------------------------------------------------------------------|
 |
 |  PM………………………         ………        ………
e|--------------------------------------------------------------------------|
B|--------------------------------------------------------------------------|
G|--------------------------------------------------------------------------|
D|9-----------------10----------14------------------------------------------|
A|x-----------------x-----------x-------------------------------------------|
E|7-----------------8-----------12------------------------------------------|
B|--000-000-000---------000--------000--------------------------------------|




                    PM…………     ………………
e|--------------------------------------------------------------------------|
B|--------------------------------------------------------------------------|
G|--------------------------------------------------------------------------|
D|9-7-5-7-5---5-------------------------------------------------------------|
A|----------9---9-7--------7-7----------------------------------------------|
E|------------------7-9-10-----7-9-10-10-8-7--------------------------------|
B|--------------------------------------------------------------------------|
 |
 |  PM………………………         ………         ………
e|--------------------------------------------------------------------------|
B|--------------------------------------------------------------------------|
G|--------------------------------------------------------------------------|
D|13----------------10---------13-------------------------------------------|
A|x-----------------x----------x--------------------------------------------|
E|11----------------8----------11-------------------------------------------|
B|--000-000-000---------000---------000-------------------------------------|


                    PM…………      ……………
e|--------------------------------------------------------------------------|
B|--------------------------------------------------------------------------|
G|--------------------------------------------------------------------------|
D|9-7-5-7-5---5------------10-9-------5-7-9---------------------------------|
A|----------9---9-7---------------------------------------------------------|
E|------------------7-9-10------9-7-5---------------------------------------|
B|--------------------------------------------------------------------------|
 |
 |  PM………………………         ………         ………
e|--------------------------------------------------------------------------|
B|--------------------------------------------------------------------------|
G|--------------------------------------------------------------------------|
D|9-----------------7-----------10------------------------------------------|
A|x-----------------x-----------x-------------------------------------------|
E|7-----------------5-----------8-------------------------------------------|
B|--000-000-000---------000---------000-------------------------------------|

e|--------------------------------------------------------------------------|
B|--------------------------------------------------------------------------|
G|--------------------------------------------------------------------------|
D|9-7-5-7-5---5------------5------------7-----------------------------------|
A|----------9---9-7--5-7-9---9-7-7-9-10---10-9--0---------------------------|
E|----------------------------------------------0---------------------------|
B|----------------------------------------------0---------------------------|
 |
e|--------------------------------------------------------------------------|
B|--------------------------------------------------------------------------|
G|--------------------------------------------------------------------------|
D|--------------------------------------------------------------------------|
A|----------------------------------------------0---------------------------|
E|0---------------------------------------------0---------------------------|
B|0---------------------------------------------0---------------------------|


                                                    N.H
e|--------------------------------------------------------------------------|
B|--------------------------------------------------7-----------------------|
G|--------------------------------------------------------------------------|
D|--------------------------------------------------------------------------|
A|------------FEEDBACK-FROM-BOTH-GUITARS------------------------------------|
E|--------------------------------------------------------------------------|
B|--------------------------------------------------------------------------|
 |                                                  N.H.
e|--------------------------------------------------------------------------|
B|--------------------------------------------------12----------------------|
G|--------------------------------------------------------------------------|
D|--------------------------------------------------------------------------|
A|--------------------------------------------------------------------------|
E|--------------------------------------------------------------------------|
B|--------------------------------------------------------------------------|

3:27 RIFF G PLAYED 2X
   PM ……     …… ……      ……      …… ……      …… ……     …… ……
e|--------------------------------------------------------------------------|
B|--------------------------------------------------------------------------|
G|--------------------------------------------------------------------------|
D|--------------------------------------------------------------------------|
A|--------------------------------------------------------------------------|
E|--------------------------------------------------------------------------|
B|-00-00-----00-00------00------00-00------00-00-----00-00------------------|


PLAY RIFF C 3X


PLAY RIFF G 2X
Suggest correction
Creating personal tab
Creating personal tab
You can edit any tab online and save it as your Personal.

You can edit, replace or remove any tab part or add personal notes – all changes will be seen only by you.

Personal tabs can be accessed anytime from any device, even offline.
Learn more »
Give kudos to tab author, rate the tab!
1 2 3 4 5
comments
print report bad tab
3 comments total.
0 reply
snook24 10 Nov 27, 2007 05:31 PM

is there a way to play this without a 7 string?

0 reply
7stringdude 70 Dec 11, 2007 12:47 PM

should be able to just has to be baritone or something with a low B. this particular song doesn't really emphasize much
playing on the high E string and the highest note you play on here is the 12 fret on the high E. those arpeggios can be
brought down a string.

0 reply
snook24 10 Dec 12, 2007 04:53 PM

yeah thats what i thought but im still pretty new at the guitar so i wasn't 100% sure. looks like an awesome tab though

guest
You may want to rate the tab now too:
select rating
Wanna post a correction for this tab? Suggest correction