Oops, an error
Loading. Please wait.

This Lying World intro tab

version 1
version 1

Intro

Whole song

Interactive

by Unearth
873 views 1 this week
2 commentsread comments
1 2 3 4 5
3 more votes to show rating
add to favorites
×
Save as Personal and add changes to this tab that will be seen only by you. Learn more ›
×
You can save this tab as Personal to edit and correct it or add notes. All changes will be seen only by you. Learn more »
launch autoscroll
font size
0
reset
how to read this tab
guitar tuner
edit
Autoscroll
slow
fast
+/-
esc
set tempo
stop
Band: Unearth
Title: This Lying World
Album: The Oncoming Storm
Track Number: 3


Comments and ratings are appreciated!

I know they play seven string, but I don't have one. So I tabbed for the song in Drop B.

C#|----------------------------------------------------------------|
G#|----------------------------------------------------------------|
 E|----------------------------------------------------------------|
 B|-------------------5b6-5b6----5b6-5b6----5b6-5b6----5b6-5b6-----|
F#|----------------------------------------------------------------|
 B|----------------------------------------------------------------|

C#|----------------------------------------------------------------|
G#|----------------------------------------------------------------|
 E|----------------------------------------------------------------|
 B|-------------------5b6-5b6-----------5b6-5b6-5b6-5b6------------|
F#|-0--00--00----------------0--00--00-----------------------------|
 B|-0--00--00----------------0--00--00-----------------------------|

C#|----------------------------------------------------------------|
G#|----------------------------------------------------------------|
 E|----------------------------------------------------------------|
 B|----------------------5b6-5b6-------------5b6-5b6-5b6-5b6-------|
F#|-0--00--00-0--00--00-----------0--00--00------------------------|
 B|-0--00--00-0--00--00-----------0--00--00------------------------|

And so on... I'll try to get the rest, but it's hard to hear the guitar :/

Suggestions? Just leave a comment or email me at shifty15@gmail.com
Suggest correction
Creating personal tab
Creating personal tab
You can edit any tab online and save it as your Personal.

You can edit, replace or remove any tab part or add personal notes – all changes will be seen only by you.

Personal tabs can be accessed anytime from any device, even offline.
Learn more »
Give kudos to tab author, rate the tab!
1 2 3 4 5
comments
print report bad tab
2 comments total.
0 reply
stephen is bore 10 Jan 30, 2007 12:29 PM

hey great tab but it goes like this

-------------- ---------------
-------------- ---------------
-------------- ---------------
-----------6b- instead of ------------5b6
-----------10b ---------------
0-0-0--0-0---- -0-0-0--0-0----

0 reply
Shifty155 76 Feb 03, 2007 04:45 AM

Whatever, I like the way I tabbed it more.

guest
You may want to rate the tab now too:
select rating
Wanna post a correction for this tab? Suggest correction