Oops, an error
Loading. Please wait.

Zombie Autopilot tab

version 2
version 2

Whole song

Interactive

by Unearth
2,934 views 1 this week
9 commentsread comments
1 2 3 4 5
x 6
add to favorites
×
Save as Personal and add changes to this tab that will be seen only by you. Learn more ›
×
You can save this tab as Personal to edit and correct it or add notes. All changes will be seen only by you. Learn more »
launch autoscroll
font size
0
reset
how to read this tab
guitar tuner
edit
Autoscroll
slow
fast
+/-
esc
set tempo
stop
Difficulty
Band: Unearth
Song:Zombie Autopilot
Album: The Oncoming Storm

Soft Intro
------------------------------------------------|
------------------------------------------------|
------------------------------------------------| x4
-----------------10---------5--------10------7--|
---8------8-----8--8-8-7---5---7h8--8--8-8--7-7-|
-12-12--10-10--8----8-7---5---7----8----8--7----|

Heavy Intro

Buz
----------------------------------------------------------------------------|
----------------------------------------------------------------------------|
----------------9-1010--9-10--17-15h17p15p14h15-----------------------------|
-14^(15)-1212--7-------7------------------------14^(15)-1212-14h15-14h15p14-|
----------------------------------------------------------------------------|
----------------------------------------------------------------------------|

Continued
-------------------------------------------------------------------------|
-------------------------------------------------------------------------|
-----------------------9-1010--9-10--17-15h17p15p14h15-------------------|
-1212--14^(15)-1212--7-------7------------------------14^(15)-1212-14h15-|
-------------------------------------------------------------------------|
-------------------------------------------------------------------------|

Continued
-------------------|
-------------------|
-------------------| x2
-10-12-7-7h8p7-5/3-|
-------------------|
-------------------|

Ken
-----------------------------  -----------------------    ------------------|
-----------------------------  -----------------------    ------------------|
-----------------------------  ----------------------- x3 -(play the 4th x)-|
-12--------------------------  -12-8-10-12-1515-14-15-    -12-8-10-12-8-7---|
-12--(pick slide)------------  -12-8-10-12-1515-14-15-    -12-8-10-12-8-7---|
-12-////////////////////////-  -12-8-10-12-1515-14-15-    -12-8-10-12-8-7---|

Verse

Buzz
---------------------------------------|
---------------------------------------|
---------------------------------------| x2
--7-8-7-8-7-8-10-8-7-5-7-5-7-5-7-8-7-5-|
-5---5---7---7------3---3---3---3------|
---------------------------------------|

Continued
------------------------------------------------------------------------------|
------------------------------------------------------------------------------|
------------------------------------------------------------------------------|
-7-8-7-8-8-10-8-10-5-7-5-7-3-5-3-5-7-8-7-8-8-10-8-10-10-12-10-12--12-11-12-11-|
5---5---7----7----3---3---1---1---5---5---7----7----8-----8-----10-----10-----|
------------------------------------------------------------------------------|

Ken
-------------------------------------------------------------|
-------------------------------------------------------------|
-------------------------------------------------------------| x2
-12-121212121212-13-131313131313-10-101010101010101010101010-|
-12-121212121212-13-131313131313-10-101010101010101010101010-|
-12-121212121212-13-131313131313-10-101010101010101010101010-|
    ............    ............    ........................

Continued
-----------------------|
-----------------------|
-----------------------|
-12-13-10--12-13-15-17-|
-12-13-10--12-13-15-17-|
-12-13-10--12-13-15-17-|

Both
-------------       -----------------|
-------------       -----------------|
-12-14-15-14- (Buzz)-----------------|
-xx-xx-xx-xx-       -7hp7----7-------|
-10-12-13-12-       -----10p8-10-8-7-|
-------------       -----------------|

Both
----------------------------------------------------    -------------|
----------------------------------------------------    -------------|
-8/7-----------8/7---11/7---7/8-7/8\7-------7-5-8/7- x4 -------------|end 4th
-x/x-0-000-000-x/x-0-x//x-0-x/x-x/x\x-0-000-x-x-x/x-    -12----------|
-6/5-0-000-000-6/5-0-9//5-0-5/6-5/6\5-0-000-5-3-6/5-    -12----------|
-----0-000-000-----0------0-----------0-000---------    -12/////////-|

---------------------    -----------------  -------------------|
---------------------    -----------------  -------------------|
---------2-3-7/5-8/7- x3 ---------555/777-  -------2-3-7/5-8/7-| x3
-0000000-x-x-x/x-x/x-    -0000000-xxx/xxx-  -0000--x-x-x/x-x/x-|
-0000000-0-1-5/3-6/5-    -0000000-333/555-  -0000--0-1-5/3-6/5-|
-0000000-------------    -0000000---------  -0000--------------|

Continued
----------------- ------------------- -----------------|
----------------- ------------------- -----------------|
---------555/777- -------2-3-7/5-8/7- ---------555/777-|
-0000000-xxx/xxx- -0000--x-x-x/x-x/x- -0000000-xxx/xxx-|
-0000000-333/555- -0000--0-1-5/3-6/5- -0000000-333/555-|
-0000000--------- -0000-------------- -0000000---------|

Buzz Solo
---------------------------------------------------------------|
---------------------------------------------------------------|
--7-9-10-9h10p9p7--7-9-10-9h10p9p7--7-9-10-9h10p9p7-10-12-10-9-|
-7----------------7----------------8---------------------------|
---------------------------------------------------------------|
---------------------------------------------------------------|

Continued
------------------------------------------------------17h18-15h17-13-15-------|
---------------------------------------------------15-------------------15p13-|
-------------------------10h12h14-12h14h15-14h15h17---------------------------|
-----------------10h12h14-----------------------------------------------------|
---------10h12h14-------------------------------------------------------------|
-12h14h15---------------------------------------------------------------------|

Continued
---------------------------------------------------------------------------|
---------------------------------------------------------------------------|
---------------------------------------------------------------------------|
---15h17p15-17h19p17-15h17p15-17h19p17-15h17p15-17h19p17-15h17p15-17h19p17-|
-17------------------------------------------------------------------------|
---------------------------------------------------------------------------|

Continued
----------------------------------------------------------------------------|
----------------------------------------------------------------------------|
----------------------------------------------------------------------------|
-15h17p15h17-14h15p14h15-12h14p12h14-10h12p10h12-12-14-15-17-15-14-10/12-12-|
----------------------------------------------------------------------------|
----------------------------------------------------------------------------|

Continued
----------------------------------------------|
----------------------------------------------|
----------------------------------------------|
-14-15-17-15-14-12-10/12-12-14-15-19-17-15-14-|
----------------------------------------------|
----------------------------------------------|

Ken
--------------------------------------------|
--------------------------------------------|
--------------------------------------------| x4
-12-12121212-10-10101010-8-8888-10-10101010-|
-12-12121212-10-10101010-8-8888-10-10101010-|
-12-12121212-10-10101010-8-8888-10-10101010-|

Buzz
--------------------------------------------|
--------------------------------------------|
--------------------------------------------| x4
-12-12121212-10-10101010-8-8888-10-10101010-|
-12-12121212-10-10101010-8-8888-10-10101010-|
-12-12121212-10-10101010-8-8888-10-10101010-|

Ken Solo (use wah pedal through out the solo)
--------------------------------/22-/17-19h20p19h20-15h17p15h17-17^19^17^^-|
-----15h17p15h17-17h18p17h18-15^-------------------------------------------|
-12^-----------------------------------------------------------------------|
---------------------------------------------------------------------------|
---------------------------------------------------------------------------|
---------------------------------------------------------------------------|

Continued
------------------------------------------------------------------------------|
----------------------------------------------13^-15^-13-15-17/18-17h18-18/20-|
------------------------------------------------------------------------------|
------------------------------------------------------------------------------|
-12--14h15p14---15h17p15-14-15-17/19-17-15-14---------------------------------|
---12---------13--------------------------------------------------------------|
------------------------------------------------------------------------------|

Continued
-13h15-15/17-15h17-17/18-17h18-18/20-18h20-20-22-|
-------------------------------------------------|
-------------------------------------------------|
-------------------------------------------------|
-------------------------------------------------|
-------------------------------------------------|

Heavy Intro

Buz
----------------------------------------------------------------------------|
----------------------------------------------------------------------------|
----------------9-1010--9-10--17-15h17p15p14h15-----------------------------|
-14^(15)-1212--7-------7------------------------14^(15)-1212-14h15-14h15p14-|
----------------------------------------------------------------------------|
----------------------------------------------------------------------------|

Continued
-------------------------------------------------------------------------|
-------------------------------------------------------------------------|
-----------------------9-1010--9-10--17-15h17p15p14h15-------------------|
-1212--14^(15)-1212--7-------7------------------------14^(15)-1212-14h15-|
-------------------------------------------------------------------------|
-------------------------------------------------------------------------|

Continued
-------------------|
-------------------|
-------------------| x1
-10-12-7-7h8p7-5/3-|
-------------------|
-------------------|

Ken
---------------------------------------------------------------------------|
---------------------------------------------------------------------------|
---------------------------------------------------------------------------|
-12-12p10-15-12-12p10-8-8-8-10-10-10---12-12-12-12-14-15-14-15-12-12-12-12-|
-12-12p10-15-12-12p10-8-8-8-10-10-10---12-12-12-12-14-15-14-15-12-12-12-12-|
-12-12p10-15-12-12p10-8-8-8-10-10-10---12-12-12-12-14-15-14-15-12-12-12-12-|

Continued
---------|
---------|
---------|
-8-8-7-7-|
-8-8-7-7-|
-8-8-7-7-|

Verse
Both
----------------------------------------------------    --------------|
----------------------------------------------------    --------------|
-8/7-----------8/7---11/7---7/8-7/8\7-------7-5-8/7- x2 --------------|end 2nd
-x/x-0-000-000-x/x-0-x//x-0-x/x-x/x\x-0-000-x-x-x/x-    --------------|
-6/5-0-000-000-6/5-0-9//5-0-5/6-5/6\5-0-000-5-3-6/5-    -(pick slide)-|
-----0-000-000-----0------0-----------0-000---------    -////////////-|

Soft Intro

Buzz
---------------------------------------------------------------------------|
---------------------------------------------------------------------------|
---------------------------------------------------------------------------|
-----------------10-----------------------10-----------------------10------|
---8------8-----8--8-8-7----8------8-----8--8-8-7----8------8-----8--8-8-7-|
-12-12--10-10--8----8-7---12-12--10-10--8----8-7---12-12--10-10--8----8-7--|

Continued
----------------------|
----------------------|
----------------------| x8
---5--------10-----7--|
--5---7h8--8--8-8-7-7-|
-5---7----8----8-7----|

Ken
-----------------------------|
-----------------------------|
-----------------------------| x2
-12-10-8-12-10-8-12-10-8-5-8-|
-12-10-8-12-10-8-12-10-8-5-8-|
-12-10-8-12-10-8-12-10-8-5-8-|

Soft Outro

Buzz
------------------------------------------------|
------------------------------------------------|
------------------------------------------------| x2
-----------------10---------5--------10------7--|
---8------8-----8--8-8-7---5---7h8--8--8-8--7-7-|
-12-12--10-10--8----8-7---5---7----8----8--7----|

Ken
------------------------------|
------------------------------|
------------------------------|
------------------------------|
------------------------------|
-12-10-8-12-14-15-12-10-8-5-8-|

Buzz
---------------------------------|
-13-----13--------13-------------|
---9-10---9-10-9-7--9-10-12-9-10-| x3
---------------------------------|
---------------------------------|
---------------------------------|

Ken
-------------------------------|
-------------------------------|
-------------------------------| x3
-12-10-8-12-10-8-12-10-8-5-5-8-|
-12-10-8-12-10-8-12-10-8-5-5-8-|
-12-10-8-12-10-8-12-10-8-5-5-8-|

            
            
Suggest correction
Creating personal tab
Creating personal tab
You can edit any tab online and save it as your Personal.

You can edit, replace or remove any tab part or add personal notes – all changes will be seen only by you.

Personal tabs can be accessed anytime from any device, even offline.
Learn more »
comments
print report bad tab
9 comments total. Showing first comments.
0 reply
bikenutter 292 Sep 07, 2006 12:26 AM

good tab - tuning's drop b, yes?

+1 reply
Nor'Easterbass 292 Sep 11, 2006 12:56 PM

hey, what soft intro do YOU hear?

0 reply
Dangerousmind 10 Sep 15, 2006 05:15 AM

the soft intro is bs.

guest
Wanna post a correction for this tab? Suggest correction