Oops, an error
Loading. Please wait.

Frost Tab

version 1
version 1

Intro

Interactive

1,669 views 6 this week
no commentswrite comment
1 2 3 4 5
please rate
add to favorites
launch autoscroll
font size
0
reset
how to read this tab
guitar tuner
Tab Pro tools
  • play this tab
  • loop segment
  • change instrument
  • show fretboard
  • metronome
×
Best way to learn
"Frost"
Autoscroll
slow
fast
+/-
esc
set tempo
stop
Difficulty
intermediate
THALL

Artist: Uneven Structure (unevenstructure.net)
Album: Februus
Track: Frost

Intro:

A#||-------------------|-------------------|-------------------|
F ||-------------------|-------------------|-------------------|
C#||-------------------|-------------------|-------------------|
G#||-------------------|-------------------|-------------------|
D#||-------------------|-------------------|-------------------|
G#||-------------------|-------------------|-------------------|


  PM       PM   PM               PM   PM             PM   PM PM    
  H        Q    Q       H        Q    Q       Q.     Q    E  Q     
---------------------|---------------------|----------------------|
---------------------|---------------------|----------------------|
---------------------|---------------------|----------------------|
---------------------|---------------------|----------------------|
--2--------2----2----|--L--------2----2----|--L------2----2--2----|
--2--------2----2----|--L--------2----2----|--L------2----2--2----|


         PM PM             PM   PM             PM PM           
  Q.     E  H           E  Q    H        E     E  H        E   
---------------------|----------------------|-----------------|
---------------------|----------------------|-----------------|
---------------------|----------------------|-----------------|
---------------------|----------------------|-----------------|
--L------2--2--------|--L--2----2--------L--|--2--2--------L--|
--L------2--2--------|--L--2----2--------L--|--2--2--------L--|


Chukuchuku-dun-dun:

    PM              PM  PM                    PM PM        
    E  S S E  S S S E.  Q       S S E  S S E  E  Q    S S  
|----------------------------|----------------------------|
|----------------------------|----------------------------|
|*---------------------------|----------------------------|
|*---------------------------|----------------------------|
|---2--x-x----x-x---2---2----|--x-x----x-x----2--2----x-x-|
|---2--x-x----x-x---2---2----|--x-x----x-x----2--2----x-x-|


           PM   PM PM                 PM PM               
  E  S S S Q    E  E  S S S    S S E  E  Q    S S E  S S  
----------------------------|----------------------------|
----------------------------|----------------------------|
----------------------------|----------------------------|
----------------------------|----------------------------|
-----x-x---2----2--2----x---|--x-x----2--2----x-x----x-x-|
-----x-x---2----2--2----x---|--x-x----2--2----x-x----x-x-|


    PM  PM                    PM PM                PM   
  S E.  Q    S S E  S S E     E  Q    S S E  S S S E.   
---------------------------|---------------------------|
---------------------------|---------------------------|
---------------------------|---------------------------|
---------------------------|---------------------------|
----2---2----x-x----x-x----|--2--2----x-x----x-x---2---|
----2---2----x-x----x-x----|--2--2----x-x----x-x---2---|


  PM PM               PM PM                     PM PM    
  E  E  S S E  S S E  E  E     E  S S E  S S E  E  Q     
----------------------------|---------------------------|
----------------------------|---------------------------|
----------------------------|---------------------------|
----------------------------|---------------------------|
--2--2----x----x-x----2--2--|-----x-x----x-x----2--2----|
--2--2----x----x-x----2--2--|-----x-x----x-x----2--2----|


                PM PM            PM              PM  PM    
  S S E  S S E  E  Q    S S      E  S S E  S S S E.  Q     
-----------------------------||---------------------------|
-----------------------------||---------------------------|
----------------------------*||---------------------------|
----------------------------*||---------------------------|
--x-x----x-x----2--2----x-x--||--2--x-x----x-x---2---2----|
--x-x----x-x----2--2----x-x--||--2--x-x----x-x---2---2----|


                PM PM                   PM   PM PM                 PM PM  
  S S E  S S E  E  Q    S S    E  S S S Q    E  E  S S S    S S E  E  E   
----------------------------|----------------------------|---------------|
----------------------------|----------------------------|---------------|
----------------------------|----------------------------|---------------|
----------------------------|----------------------------|---------------|
--x-x----x-x----2--2----x-x-|-----x-x---2----2--2----x---|--x-x----2--2--|
--x-x----x-x----2--2----x-x-|-----x-x---2----2--2----x---|--x-x----2--2--|


Duration Legend
---------------
W - whole
H - half
Q - quarter
E - 8th
S - 16th
T - 32nd
X - 64th
. - note dotted
|-n-|  - n-tuplets


Tablature Legend
----------------
L - tied note
x - dead note
g - grace note
(n) - ghost note
> - accentuded note
NH - natural harmonic
AH - artificial harmonic
TH - tapped harmonic
SH - semi harmonic
PH - pitch harmonic
h - hammer on
p - pull off
b - bend
br - bendRelease
pb - preBend
pbr - preBendRelease
brb - bendReleaseBend
\n/ - tremolo bar dip
\n - tremolo bar dive
-/n - tremolo bar Release up
/n\ - tremolo bar inverted dip
/n - tremolo bar return
-\n - tremolo bar Release down
S - shift slide
s - legato slide
/ -  slide into from below or out of upwards
\ -  slide into from above or out of downwards
~ - vibrato
W - wide vibrato
tr - trill
TP - tremolo picking
T - tapping
S - slap
P - pop
< - fade in
^ - brush up
v - brush down
comments
We did not receive enough feedback on this tab! Please rate:
print report bad tab
1 2 3 4 5
I want to post or [tab]
guest
You may want to rate the tab now too:
select rating
Please do not post tabs as comments. Select "correction" instead!