Oops, an error
Loading. Please wait.

Wet Pussycat tab

by Unida
409 views 6 this week
no commentswrite comment
1 2 3 4 5
3 more votes to show rating
add to favorites
×
Save as Personal and add changes to this tab that will be seen only by you. Learn more ›
×
You can save this tab as Personal to edit and correct it or add notes. All changes will be seen only by you. Learn more »
launch autoscroll
font size
0
reset
how to read this tab
guitar tuner
edit
Autoscroll
slow
fast
+/-
esc
set tempo
stop
WET PUSSYCAT
by Unida
tabbed by:  dropdeee

tuning:     Drop-C (C G C F A D)
effects:    distortion
video:      https://www.youtube.com/watch?v=84EwcHRqTQg


[Intro]

D|---------------------------------------------------------------------------|
A|---------------------------------------------------------------------------|
F|---------------------------------------------------------------------------| 
C|---------------------------------------------------------------------------| x 11
G|---0-0-10-0-10-0-0-10-0-10-0-0--10/12-12~~~--------------------------------|
C|---------------------------------------------------------------------------|

D|---------------------------------------------------------------------------|
A|---------------------------------------------------------------------------|
F|---------------------------------------------------------------------------|
C|--------------------------------10-10--------------------------------------| x 1
G|---0-0-10-0-10-0-0-10-0-10-0-0--------12~~---------------------------------|
C|---------------------------------------------------------------------------|

D|---------------------------------------------------------------------------|
A|---------------------------------------------------------------------------|
F|---------------------------------------------------------------------------| 
C|---------------------------------------------------------------------------| x 3
G|---0-0-10-0-10-0-0-10-0-10-0-0--10/12-12~~~--------------------------------|
C|---------------------------------------------------------------------------|

D|---------------------------------------------------------------------------|
A|---------------------------------------------------------------------------|
F|---------------------------------------------------------------------------| x 1
C|----------10-----10----------------10-----10------------10~~~--------------|
G|---10h12----h12----h12--10h12--------h12----h12--10h12---------------------|
C|---------------------------------------------------------------------------|

 
[Verse]

D|---------------------------------------------------------------------------|
A|---------------------------------------------------------------------------|
F|---------------------------------------------------------------------------| 
C|---------------------------------------------------------------------------| x 3
G|---0-0-10-0-10-0-0-10-0-10-0-0--10/12-12~~~--------------------------------|
C|---------------------------------------------------------------------------|

D|---------------------------------------------------------------------------|
A|---------------------------------------------------------------------------|
F|---------------------------------------------------------------------------| x 1
C|--------------------------------10-10--------------------------------------| 
G|---0-0-10-0-10-0-0-10-0-10-0-0--------12~~---------------------------------|
C|---------------------------------------------------------------------------|

                        play verse 3 times, then...

D|---------------------------------------------------------------------------|
A|---------------------------------------------------------------------------|
F|---------------------------------------------------------------------------| 
C|---------------------------------------------------------------------------| 
G|---0-0-10-0-10-0-0-10-0-10-0-0--10/12-12~~~--------------------------------|
C|---------------------------------------------------------------------------|

D|---------------------------------------------------------------------------|
A|---------------------------------------------------------------------------|
F|---------------------------------------------------------------------------| 
C|----------10-----10----------------10-----10------------10~~~--------------|
G|---10h12----h12----h12--10h12--------h12----h12--10h12---------------------|
C|---------------------------------------------------------------------------|


 [Chorus]

D|---------------------------------------------------------------------------|
A|---------------------------------------------------------------------------|
F|---------------------------------------------------------------------------|
C|---------------------------------------------------------------------------|
G|---0-0-10-0-10-0-0-10-0-10-0-0--10/12--12\5--------------------------------|
C|---------------------------------------------------------------------------|

D|---------------------------------------------------------------------------|
A|---------------------------------------------------------------------------|
F|---------------------------------------------------------------------------| 
C|--------------------------------10-10--------------------------------------| 
G|---0-0-10-0-10-0-0-10-0-10-0-0--------12~~---------------------------------|
C|---------------------------------------------------------------------------|

D|---------------------------------------------------------------------------|
A|---------------------------------------------------------------------------|
F|---------------------------------------------------------------------------| 
C|---------------------------------------------------------------------------|
G|---0-0-10-0-10-0-0-10-0-10-0-0--10/12-12~~~--------------------------------|
C|---------------------------------------------------------------------------|

D|---------------------------------------------------------------------------|
A|---------------------------------------------------------------------------|
F|---------------------------------------------------------------------------| 
C|----------10-----10----------------10-----10------------10~~~--------------|
G|---10h12----h12----h12--10h12--------h12----h12--10h12---------------------|
C|---------------------------------------------------------------------------|

                         play chorus three times


 [Verse 2]  

   PM---------------------------------------|
D|---------------------------------------------------------------------------|
A|---------------------------------------------------------------------------|
F|---------------------------------------------------------------------------|
C|---------------------------------------------------------------------------|
G|---0-0-10-0-10-0-0-10-0-10-0-0--------10-12--------------------------------|
C|--------------------------------10-12--------------------------------------|

   PM---------------------------|
D|---------------------------------------------------------------------------|
A|---------------------------------------------------------------------------|
F|---------------------------------------------------------------------------| 
C|---------------------------------------------------------------------------|
G|---0-0-10-0-10-0-0-10-0-10-0-0--10/12-12~~~--------------------------------|
C|---------------------------------------------------------------------------|

   PM---------------------------------------|
D|---------------------------------------------------------------------------|
A|---------------------------------------------------------------------------|
F|---------------------------------------------------------------------------|
C|---------------------------------------------------------------------------|
G|---0-0-10-0-10-0-0-10-0-10-0-0--------10-12--------------------------------|
C|--------------------------------10-12--------------------------------------|

   PM---------------------------|
D|---------------------------------------------------------------------------|
A|---------------------------------------------------------------------------|
F|---------------------------------------------------------------------------| 
C|--------------------------------10-10--------------------------------------|
G|---0-0-10-0-10-0-0-10-0-10-0-0--------12~~~--------------------------------|
C|---------------------------------------------------------------------------|

                       play verse three times then...

PM---------------------------------------|
D|---------------------------------------------------------------------------|
A|---------------------------------------------------------------------------|
F|---------------------------------------------------------------------------|
C|---------------------------------------------------------------------------|
G|---0-0-10-0-10-0-0-10-0-10-0-0--------10-12--------------------------------|
C|--------------------------------10-12--------------------------------------|

   PM---------------------------|
D|---------------------------------------------------------------------------|
A|---------------------------------------------------------------------------|
F|---------------------------------------------------------------------------| 
C|---------------------------------------------------------------------------|
G|---0-0-10-0-10-0-0-10-0-10-0-0--10/12-12~~~--------------------------------|
C|---------------------------------------------------------------------------|

   
D|---------------------------------------------------------------------------|
A|---------------------------------------------------------------------------|
F|---------------------------------------------------------------------------|
C|---------------------------------------------------------------------------| 
G|---0-0-10-0-10-0-0-10-0-10-0-0--------10-12--------------------------------|
C|--------------------------------10-12--------------------------------------|

  
D|---------------------------------------------------------------------------|
A|---------------------------------------------------------------------------|
F|---------------------------------------------------------------------------| 
C|----------10-----10----------------10-----10------------10~~~--------------|
G|---10h12----h12----h12--10h12--------h12----h12--10h12---------------------|
C|---------------------------------------------------------------------------|


 [Chorus]

D|---------------------------------------------------------------------------|
A|---------------------------------------------------------------------------|
F|---------------------------------------------------------------------------|
C|---------------------------------------------------------------------------|
G|---0-0-10-0-10-0-0-10-0-10-0-0--10/12--12\5--------------------------------|
C|---------------------------------------------------------------------------|

D|---------------------------------------------------------------------------|
A|---------------------------------------------------------------------------|
F|---------------------------------------------------------------------------| 
C|--------------------------------10-10--------------------------------------| 
G|---0-0-10-0-10-0-0-10-0-10-0-0--------12~~---------------------------------|
C|---------------------------------------------------------------------------|

D|---------------------------------------------------------------------------|
A|---------------------------------------------------------------------------|
F|---------------------------------------------------------------------------| 
C|---------------------------------------------------------------------------|
G|---0-0-10-0-10-0-0-10-0-10-0-0--10/12-12~~~--------------------------------|
C|---------------------------------------------------------------------------|

D|---------------------------------------------------------------------------|
A|---------------------------------------------------------------------------|
F|---------------------------------------------------------------------------| 
C|----------10-----10----------------10-----10------------10~~~--------------|
G|---10h12----h12----h12--10h12--------h12----h12--10h12---------------------|
C|---------------------------------------------------------------------------|
     
                          play chorus five times

          
 [Bridge]

D|------------------|------------------|------------------|------------------|
A|------------------|------------------|------------------|------------------|
F|------------------|------------------|------------------|------------------|
C|-7-7-7-7--7-7-7-7-|-7-7-7-7--7-7-7-7-|-5/7-7-7--7-7-7-7-|-5/7-7-7--8p7-7-7-|
G|-7-7-7-7--7-7-7-7-|-7-7-7-7--7-7-7-7-|-5/7-7-7--7-7-7-7-|-5/7-7-7--8p7-7-7-|
C|-7-7-7-7--7-7-7-7-|-7-7-7-7--7-7-7-7-|-5/7-7-7--7-7-7-7-|-5/7-7-7--8p7-7-7-|
                                        
D|------------------|------------------|------------------|------------------|
A|------------------|------------------|------------------|------------------|
F|------------------|------------------|------------------|------------------|
C|-5/7-7-7--7-7-7-7-|-7-7-7-7--7-7-7-7-|-5/7-7-7--7-7-7-7-|-5/7-7-7--8p7-7-7-|
G|-5/7-7-7--7-7-7-7-|-7-7-7-7--7-7-7-7-|-5/7-7-7--7-7-7-7-|-5/7-7-7--8p7-7-7-|
C|-5/7-7-7--7-7-7-7-|-7-7-7-7--7-7-7-7-|-5/7-7-7--7-7-7-7-|-5/7-7-7--8p7-7-7-|
                                                           
D|--------------------------|--------------------------|--------------------------|--------------------------|
A|--------------------------|--------------------------|--------------------------|--------------------------|
F|--------------------------|--------------------------|--------------------------|--------------------------|
C|-19-19-19-19--19-19-19-19-|-19-19-19-19--19-19-19-19-|-20p19-19-19--19-19-19-19-|-19-19-19-19--19-19-19-19-|
G|-19-19-19-19--19-19-19-19-|-19-19-19-19--19-19-19-19-|-20p19-19-19--19-19-19-19-|-19-19-19-19--19-19-19-19-|
C|-19-19-19-19--19-19-19-19-|-19-19-19-19--19-19-19-19-|-20p19-19-19--19-19-19-19-|-19-19-19-19--19-19-19-19-|

D|--------------------------|--------------------------|--------------------------|--------------------------|
A|--------------------------|--------------------------|--------------------------|--------------------------|
F|--------------------------|--------------------------|--------------------------|--------------------------|
C|-20p19-19-19--19-19-19-19-|-20p19-19-19--19-19-19-19-|-20p19-19-19--19-19-19-19-|-19---------\----------7--|
G|-20p19-19-19--19-19-19-19-|-20p19-19-19--19-19-19-19-|-20p19-19-19--19-19-19-19-|-19---------\----------7--|
C|-20p19-19-19--19-19-19-19-|-20p19-19-19--19-19-19-19-|-20p19-19-19--19-19-19-19-|-19---------\----------7--|
                                                                                     slide the full measure

                                   play bridge three times

 [Outro]

D|-----------------------------------|-------------------------------------|
A|-----------------------------------|-------------------------------------|
F|-----------------------------------|-------------------------------------|
C|--5h7-7-5-7-7-5-7-7-5-7-7-5h7-7-7--|--5h7-7-5-7-7-5-7-7-5-7-7-8\7-7-7----|
G|--5h7-7-5-7-7-5-7-7-5-7-7-5h7-7-7--|--5h7-7-5-7-7-5-7-7-5-7-7-8\7-7-7----|
C|--5h7-7-5-7-7-5-7-7-5-7-7-5h7-7-7--|--5h7-7-5-7-7-5-7-7-5-7-7-8\7-7-7----|
                                          
D|-----------------------------------|-------------------------------------|
A|-----------------------------------|-------------------------------------|
F|-----------------------------------|-------------------------------------|
C|--5h7-7-5-7-7-5-7-7-5-7-7-5h7-7-7--|--5h7-7-5-7-7-5-7-7-5-7-7-8\7-7-7----|
G|--5h7-7-5-7-7-5-7-7-5-7-7-5h7-7-7--|--5h7-7-5-7-7-5-7-7-5-7-7-8\7-7-7----|
C|--5h7-7-5-7-7-5-7-7-5-7-7-5h7-7-7--|--5h7-7-5-7-7-5-7-7-5-7-7-8\7-7-7----|
     
                           play outro twice then...
D|---------|
A|---------|
F|---------|
C|--7------| Let Ring...
G|--7------|
C|--7------|





************************************


| h   Hammer-on
| p   Pull-off
| /   Slide up
| \   Slide down
| ~   Vibrato
| PM  Palm mute


************************************
Suggest correction
Creating personal tab
Creating personal tab
You can edit any tab online and save it as your Personal.

You can edit, replace or remove any tab part or add personal notes – all changes will be seen only by you.

Personal tabs can be accessed anytime from any device, even offline.
Learn more »
Give kudos to tab author, rate the tab!
1 2 3 4 5
comments
print report bad tab
guest
You may want to rate the tab now too:
select rating
Wanna post a correction for this tab? Suggest correction