Oops, an error
Loading. Please wait.

Concrete And Clay Bass Tab

470 views 1 this week
no commentswrite comment
1 2 3 4 5
please rate
add to favorites
launch autoscroll
font size
0
reset
guitar tuner
Tab Pro tools
  • play this tab
  • loop segment
  • change instrument
  • show fretboard
  • metronome
×
Best way to learn
"Concrete And Clay"
Autoscroll
slow
fast
+/-
esc
set tempo
stop
Contributor
Concrete And Clay
Unit 4+2
Written by Tommy Moeller and Brian Parker; released as a single with "When I 
Fall In Love" as the B-side.

Intro:
G|------- ------- ------- -------|------- ------- ------- -------|
D|-------------------------------|-------------------------------|
A|-------------------------------|-------------------------------|
E|-------------------------------|-------------------------------|
  (percussion only, for the first four measures)


G|------- ------- ------- -------|------- ------- ------- -------|
D|-------------------------------|-------------------------------|
A|-------------------------------|-------------------------------|
E|-------------------------------|-------------------------------|



G|------- ------- ------- -------|------- ------- ------- -------|
D|6-----------6------------------|6-----------6------------------|
A|----------------6--------------|----------------6--------------|
E|-------------------------------|-------------------------------|



G|------- ------- ------- -------|------- ------- ------- -------|
D|6-----------6------------------|6-----------6------------------|
A|----------------6--------------|----------------6--------------|
E|-------------------------------|-------------------------------|


Verse:
G|------- ------- ------- -------|------- ------- ------- -------|
D|6-----------6------------------|6-----------6-----------6------|
A|----------------6--------------|----------------6--------------|
E|-------------------------------|-------------------------------|
  You,        to  me,                     are     sweet as


G|------- ------- ------- -------|------- ------- ------- -------|
D|-------------------------------|-------------------------------|
A|4-----------4------------------|4-----------4-----------4------|
E|----------------4--------------|----------------4--------------|
  ro  -   ses in          the morning,                    And


G|------- ------- ------- -------|------- ------- ------- -------|
D|6-----------6------------------|6-----------6-----------6------|
A|----------------6--------------|----------------6--------------|
E|-------------------------------|-------------------------------|
  you,        to  me,                     are     soft    as


G|------- ------- ------- -------|------- ------- ------- -------|
D|-------------------------------|4-----------4------------------|
A|4-----------4-----------4------|----------------4--------------|
E|----------------4--------------|-------------------------------|
  summer      rain   at          dawn,       in  love    we


G|------- ------- ------- -------|------- ------- ------- -------|
D|4-----------4-----------4------|3-----------3------------------|
A|----------------4--------------|----------------3--------------|
E|-------------------------------|-------------------------------|
  share                   that    some   -    thing rare.


G|------- ------- ------- -------|------- ------- ------- -------|
D|3-----------3-----------3------|-------------------------------|
A|----------------3--------------|6-----------6------------------|
E|-------------------------------|----------------6--------------|
                              The side -  walks   in  the     street,


G|------- ------- ------- -------|------- ------- ------- -------|
D|-------------------------------|6-----------6---6--------------|
A|6-----------6-----------6------|-------------------------------|
E|----------------6--------------|-------------------------------|
                          the con  -  crete       and     the clay


G|------- ------- ------- -------|
D|6-----------6---6-------4------|
A|----------------------------6--|
E|-------------------------------|
          beneath     my

Refrain:
G|------- ------- ------- -------|------- ------- ------- -------|
D|-------------------------------|3-----------3-----------3------|
A|4-----------4-----------4------|----------------4--------------|
E|----------------4--------------|-------------------------------|
  feet        be- gins    to  crum -  ble,                but


G|------- ------- ------- -------|------- ------- ------- -------|
D|4-----------4-----------4------|6-----------6-----------6------|
A|----------------4--------------|----------------6-----------6--|
E|-------------------------------|-------------------------------|
  love    will    ne- ver     die,            Be- cause   we'll


G|------- ------- ------- -------|------- ------- ------- -------|
D|-------------------------------|3-----------3-----------3------|
A|4-----------4-----------4------|----------------4---4----------|
E|----------------4--------------|-------------------------------|
  see         the mountains   tumb -  le                  be-


G|------- ------- ------- -------|------- ------- ------- -------|
D|4-----------4-----------4------|6-----------------------6------|
A|----------------4--------------|----------------6--------------|
E|-------------------------------|-------------------------------|
  fore    we      say good -  bye,            My  love and    I


G|------- ------- ------- -------|------- ------- ------- -------|
D|4-----------4------------------|4-----------4-----------4------|
A|----------------4--------------|----------------4--------------|
E|-------------------------------|-------------------------------|
                          will be                         in
  ooooooooooooooooooooooooooooooooooooooooooooooooooooooooooooooo

G|------- ------- ------- -------|------- ------- ------- -------|
D|3-----------3-----------3------|-------------------------------|
A|----------------3--------------|6-----------6------------------|
E|-------------------------------|----------------6--------------|
  love        e - ter  -  nally.
  ooooooooooooooooooooooooooooooo
Verse:
G|------- ------- ------- -------|------- ------- ------- -------|
D|-------------------------------|-------------------------------|
A|----------------6--------------|----------------6-----------6--|
E|4-----------4------------------|4-----------4------------------|
  That's      the way,            mmm,            that's  the way


G|------- ------- ------- -------|------- ------- ------- -------|
D|-------------------------------|-------------------------------|
A|4-----------4------------------|4-----------4-----------4------|
E|----------------4--------------|----------------4--------------|
          it's    meant   to  be,


G|------- ------- ------- -------|------- ------- ------- -------|
D|6-----------6------------------|6-----------6-----------6------|
A|----------------6--------------|----------------6--------------|
E|-------------------------------|-------------------------------|
  All         a - round,                  I       see the


G|------- ------- ------- -------|------- ------- ------- -------|
D|-------------------------------|-------------------------------|
A|4-----------4------------------|4-----------4-----------4------|
E|----------------4--------------|----------------4--------------|
  pur  -  ple     shades      of  evening,                    And


G|------- ------- ------- -------|------- ------- ------- -------|
D|6-----------6------------------|6-----------6-----------6------|
A|----------------6--------------|----------------6--------------|
E|-------------------------------|-------------------------------|
  on          the ground,                         shadows


G|------- ------- ------- -------|------- ------- ------- -------|
D|-------------------------------|4-----------4------------------|
A|4-----------4-----------4------|----------------4--------------|
E|----------------4--------------|-------------------------------|
  fall,       and once    a - gain        you're  in  my


G|------- ------- ------- -------|------- ------- ------- -------|
D|4-----------4-----------4------|3-----------3------------------|
A|----------------4--------------|----------------3--------------|
E|-------------------------------|-------------------------------|
  arms                    so      ten    -    derly,


G|------- ------- ------- -------|------- ------- ------- -------|
D|3-----------3-----------3------|-------------------------------|
A|----------------3--------------|6-----------6------------------|
E|-------------------------------|----------------6--------------|
                          The     side -  walks   in  the     street,


G|------- ------- ------- -------|------- ------- ------- -------|
D|-------------------------------|6-----------6---6--------------|
A|6-----------6-----------6------|-------------------------------|
E|----------------6--------------|-------------------------------|
                          the con  -  crete       and     the clay


G|------- ------- ------- -------|
D|6-----------6---6-------4------|
A|----------------------------6--|
E|-------------------------------|
          beneath     my

Refrain:
G|------- ------- ------- -------|------- ------- ------- -------|
D|-------------------------------|3-----------3-----------3------|
A|4-----------4-----------4------|----------------4--------------|
E|----------------4--------------|-------------------------------|
  feet        be- gins    to  crum -  ble,                but


G|------- ------- ------- -------|------- ------- ------- -------|
D|4-----------4-----------4------|6-----------6-------6---4------|
A|----------------4--------------|----------------6-----------6--|
E|-------------------------------|-------------------------------|
  love    will    ne- ver     die,            Be- cause   we'll


G|------- ------- ------- -------|------- ------- ------- -------|
D|-------------------------------|3-----------3-----------3------|
A|4-----------4-----------4------|----------------4--------------|
E|----------------4--------------|-------------------------------|
  see         the mountains   tumb -  le                  be-


G|------- ------- ------- -------|------- ------- ------- -------|
D|4-----------4-----------4------|6-----------6----------/6------|
A|----------------4--------------|----------------6--------------|
E|-------------------------------|-------------------------------|
  fore    we      say good -  bye,            My  love and    I


G|------- ------- ------- -------|------- ------- ------- -------|
D|4-----------4------------------|4-----------4-----------4------|
A|----------------4--------------|----------------4--------------|
E|-------------------------------|-------------------------------|
                          will be                         in
  ooooooooooooooooooooooooooooooooooooooooooooooooooooooooooooooo

G|------- ------- ------- -------|------- ------- ------- -------|
D|3-----------3-----------3------|-------------------------------|
A|----------------3--------------|6-----------6------------------|
E|-------------------------------|----------------6--------------|
  love        e - ter  -  nally.
  ooooooooooooooooooooooooooooooo
Verse (half-solo):
G|------- ------- ------- -------|------- ------- ------- -------|
D|6-----------6------------------|6-----------6------------------|
A|----------------6--------------|----------------6--------------|
E|-------------------------------|-------------------------------|
  That's      the way,            mmm,            that's  the way


G|------- ------- ------- -------|------- ------- ------- -------|
D|-------------------------------|-------------------------------|
A|4-----------4------------------|4-----------4-----------4------|
E|----------------4--------------|----------------4--------------|
          it's    meant   to  be.


G|------- ------- ------- -------|------- ------- ------- -------|
D|6-----------6------------------|6-----------6------------------|
A|----------------6--------------|----------------6--------------|
E|-------------------------------|-------------------------------|



G|------- ------- ------- -------|------- ------- ------- -------|
D|-------------------------------|-------------------------------|
A|4-----------4------------------|4-----------4-----------4------|
E|----------------4--------------|----------------4--------------|



G|------- ------- ------- -------|------- ------- ------- -------|
D|6-----------6------------------|6-----------6-----------6------|
A|----------------6--------------|----------------6--------------|
E|-------------------------------|-------------------------------|



G|------- ------- ------- -------|------- ------- ------- -------|
D|-------------------------------|4-----------4------------------|
A|4-----------4-----------4------|----------------4--------------|
E|----------------4--------------|-------------------------------|



G|------- ------- ------- -------|------- ------- ------- -------|
D|4-----------4-----------4------|3-----------3------------------|
A|----------------4--------------|----------------3--------------|
E|-------------------------------|-------------------------------|



G|------- ------- ------- -------|------- ------- ------- -------|
D|3-----------3-----------3------|-------------------------------|
A|----------------3--------------|6-----------6------------------|
E|-------------------------------|----------------6--------------|
                          The     side -  walks   in  the     street,


G|------- ------- ------- -------|------- ------- ------- -------|
D|-------------------------------|6-----------6---6--------------|
A|6-----------6-----------6------|-------------------------------|
E|----------------6--------------|-------------------------------|
                          the con  -  crete       and     the clay


G|------- ------- ------- -------|
D|6-----------6---6-------4------|
A|----------------------------6--|
E|-------------------------------|
          beneath     my

Refrain:
G|------- ------- ------- -------|------- ------- ------- -------|
D|-------------------------------|3-----------3-----------3------|
A|4-----------4-----------4------|----------------4--------------|
E|----------------4---4----------|-------------------------------|
  feet        be- gins    to  crum -  ble,                but


G|------- ------- ------- -------|------- ------- ------- -------|
D|4-----------4-----------4------|6-----------6---6-------4------|
A|----------------4--------------|----------------------------6--|
E|-------------------------------|-------------------------------|
  love    will    ne- ver     die,            Be- cause   we'll


G|------- ------- ------- -------|------- ------- ------- -------|
D|-------------------------------|3-----------3-----------3------|
A|4-----------4-----------4------|----------------4--------------|
E|----------------4--------------|-------------------------------|
  see         the mountains   tumb -  le                  be-


G|------- ------- ------- -------|------- ------- ------- -------|
D|4-----------4-----------4------|6-----------6----------/6------|
A|----------------4---4----------|----------------6--------------|
E|-------------------------------|-------------------------------|
  fore    we      say good -  bye,            My  love and    I


G|------- ------- ------- -------|------- ------- ------- -------|
D|4-----------4---4--------------|4-----------4-----------4------|
A|------------------------4------|----------------4--------------|
E|-------------------------------|-------------------------------|
                          will be                         in
  ooooooooooooooooooooooooooooooooooooooooooooooooooooooooooooooo

G|------- ------- ------- -------|------- ------- ------- -------|
D|3-----------3-----------3------|-------------------------------|
A|----------------3--------------|6-----------6------------------|
E|-------------------------------|----------------6--------------|
  love        e - ter  -  nally.
  ooooooooooooooooooooooooooooooo
Outro:
G|------- ------- ------- -------|------- ------- ------- -------|
D|-------------------------------|-------------------------------|
A|----------------6--------------|----------------6--------------|
E|4-----------4------------------|4-----------4------------------|
  That's      the way,            mmm,            that's  the way


G|------- ------- ------- -------|------- ------- ------- -------|
D|-------------------------------|-------------------------------|
A|4-----------4------------------|4-----------4-----------4------|
E|----------------4--------------|----------------4--------------|
          it's    meant   to  be,


G|------- ------- ------- -------|------- ------- ------- -------|
D|6-----------6------------------|6-----------6-----------6------|
A|----------------6--------------|----------------6--------------|
E|-------------------------------|-------------------------------|
  That's      the way,            mmm,            that's  the way


G|------- ------- ------- -------|------- ------- ------- -------|
D|-------------------------------|-------------------------------|
A|4-----------4------------------|4-----------4-----------4------|
E|----------------4--------------|----------------4--------------|
          it's    meant   to  be,
repeat and fade out...

Please e-mail me for any corrections, or write a comment.
comments
We did not receive enough feedback on this tab! Please rate:
print report bad tab
1 2 3 4 5
I want to post or [tab]
guest
You may want to rate the tab now too:
select rating
Please do not post tabs as comments. Select "correction" instead!