Oops, an error
Loading. Please wait.

Concrete And Clay Tab

7 views 1 this week
no commentswrite comment
1 2 3 4 5
2 more votes to show rating
add to favorites
launch autoscroll
font size
0
reset
how to read this tab
guitar tuner
Autoscroll
slow
fast
+/-
esc
set tempo
stop
Help us to improve Ultimate-Guitar.com Take our survey!
×
Author
Difficulty
intermediate
[Intro]   Riff 1: Start on bar 3 (including drum intro)

e|------------------------------------|---------------4--4--6--7--8--7--6--5--4-|
B|------------------------------------|-----------------------------------------|
G|------------------------------------|-----------------------------------------|
D|-------------------------3--5--6----|--6--6---5--6----------------------------|
A|------------3---4---6---------------|-----------------------------------------|
E|----4---6---------------------------|-----------------------------------------|


Riff 2 (Start on 2nd "Me to you" in verse)

e|----------------------------------|-----------------------------------------|
B|----------------------------------|----------------6--6---5--6------2-------|
G|----------------------------------|----------------6--6---5--6------3-------|
D|--------------------3----5----6---|--6--6--5--6-----------------------------|
A|---------3--4--6------------------|-----------------------------------------|
E|--4--6----------------------------|-----------------------------------------|
Suggest correction
Give kudos to tab author, rate the tab!
1 2 3 4 5
comments
print report bad tab
guest
You may want to rate the tab now too:
select rating
Wanna post a correction for this tab? Suggest correction