Oops, an error
Loading. Please wait.

Adonai Tab

version 1
version 1

Solo

Whole song

4,202 views 1 this week
no commentswrite comment
1 2 3 4 5
x 4
add to favorites
launch autoscroll
font size
0
reset
how to read this tab
guitar tuner
Autoscroll
slow
fast
+/-
esc
set tempo
stop
Help us to improve Ultimate-Guitar.com Take our survey!
×
Author
Adonai
artist: United Live
album: Mighty to Save
difficulty: novice
tuning: EADGBe
tabbed by Ferdinand Bato


instrumental
e|--14-14-14-14-14-14-14-14--14---------------------|
B|-----------------------------11-11-11-11h12-12-12-|
G|--------------------------------------------------|
D|--------------------------------------------------|
A|--------------------------------------------------|
E|--------------------------------------------------|


e|--------------------------------------------------|
B|--------12-------12-------12--------12--14--------|
G|--11h13----11h13----11h13----11h13----------------|
D|--------------------------------------------------|
A|--------------------------------------------------|
E|--------------------------------------------------|

e|--11--9----11--9-----11--9-----12-11----11--9-----11-|
B|--------12-------12--------12--------12-------12-----|
G|-----------------------------------------------------|
D|-----------------------------------------------------|
A|-----------------------------------------------------|
E|-----------------------------------------------------|


e|--9-----11--9-----12-11---11-------12--14---------|
B|-----12-------12-------12-----12-12---------12----|
G|--------------------------------------------------|
D|--------------------------------------------------|
A|--------------------------------------------------|
E|--------------------------------------------------|
Suggest correction
comments
print report bad tab
guest
You may want to rate the tab now too:
select rating
Wanna post a correction for this tab? Suggest correction