Oops, an error
Loading. Please wait.

Break Free Tab

version 2
version 2

Whole song

415 views 1 this week
2 commentsread comments
1 2 3 4 5
please rate
add to favorites
launch autoscroll
font size
0
reset
how to read this tab
guitar tuner
Autoscroll
slow
fast
+/-
esc
set tempo
stop
Help us to improve Ultimate-Guitar.com Take our survey!
×
Author
Difficulty
novice
From the latest album of united...


Elow for comments, reaction and bomb treat just email me at chesterockz12@yahoo.com and 
n rin me sa frndzer...
Elow nga pla sa mkkbasa nito sana mka2long sa church ninyo...
Elow din sa CCF especially to Arnold, nat, noah, micz and ritzel and other musician sa 
nmin…and also sa LOG especially to kuya gani, nathan, joseph and jr...

Intro/Verse:
e|----------------------------------------------------------|
B|----------------------------------------------------------|
G|----------------------------------xxxxx-------------------|
D|-------------------5-5-4-5—4--6---xxxxx---5-4-5—4--6------|
A|----------------------------------xxxxx-------------------|
E|--2-2-2-2-2-2-2-2-----------------xxxxx-------------------|


Prechorus:
-------------------------|
-------------------------|
-------------------------|
-------------------------|
-------------------------|
-2-2-2-2~-2-2-2-2~-2-2-2-|


-------------------------|
-------------------------|
-------------------------|
-4-4--6-6---4-4--6-6-----|
-5-5--5-5---5-5--5-5-----|
-------------------------|

Chorus:
A D E F#m D

Bridge:
naku... Pagdating d2 hnd ku msyado makuha... wel I think bka mkatulong ang part n e2... 
ko kc ginagwa ku. Strum mu lng n 2loy2loy para mkuha ung mute n 2nug den pindutin mo n 
ung chords...

instrumental parts:
---------------|
-14-----17-----|
-14-----16-----|
-14-----14-----|
---------------|
---------------|

pagkumanta na…
---------------|
-14-----15-----|
-14-----14-----|
-14-----14-----|
---------------|
---------------|
GLORY TO GOD………………………
Suggest correction new What's this?
You can suggest a correction to this tab. Community and Mods will review your correction and vote to approve or reject it.
comments
We did not receive enough feedback on this tab! Please rate:
print report bad tab
1 2 3 4 5
2 comments total.
0 reply
s0lid_1 13 wrote on February 19 2008, 01:59 pm

nice english, mean tab!

0 reply
hillsonger 13 wrote on October 26 2008, 07:40 pm

Intro/Verse:
e|----------------------------------------------------------|
B|----------------------------------------------------------|
G|----------------------------------xxxxx-------------------|
D|-------------------0-0-4-0—4--6---xxxxx---0-4-0—4--6------|
A|----------------------------------xxxxx-------------------|
E|--2-2-2-2-2-2-2-2-----------------xxxxx-------------------|

i think it goes like that. just a minor adjustment

guest
You may want to rate the tab now too:
select rating
Please do not post tabs as comments. Select "correction" instead!