Oops, an error
Loading. Please wait.

Break Free Tab

version 4
version 4

Whole song

1,022 views 1 this week
1 commentread comment
1 2 3 4 5
accurate
x 4
add to favorites
launch autoscroll
font size
0
reset
how to read this tab
guitar tuner
Autoscroll
slow
fast
+/-
esc
set tempo
stop
Help us to improve Ultimate-Guitar.com Take our survey!
×
Contributor
Difficulty
gatecrusher 1,863
novice
break free
artrist: Uniited live
tabbed by Ferdinand Bato
email: gatecrusher07@yahoo.com

v- vibrato
/- slide

intro:

e--------------------------------------------------------------|
B--------------------------------------------------------------|
G--------------------------------------------------------------|
D--------------------------4----4--6v------4----4---6v---------|
A----------------------5-5----5--------5------5----------------|
E-2222-2222-2222-2222------------------------------------------|


verse 1:
guitar 1
e--------------------------------------------------------------|
B--------------------------------------------------------------|
G--------------------------------------------------------------|
D--------------------------4----4--6v------4----4---6v---------|
A----------------------5-5----5--------5------5----------------|
E-2222-2222-2222-2222------------------------------------------|

guitar 2:
e------------------------------------------------|
B---10-(8x)---9--(8x)----7-7--7-7----------------|
G---11--------11---------7-7--7-7----------------|
D---12--------12---------------------------------|
A------------------------------------------------|
E------------------------------------------------|

pre-chorus: so wont you break free...

guitar 1
e--------------------------------------------------------------|
B--------------------------------------------------------------|
G----------------------(palm mute)-----------------------------|
D----------------------4-4-PM-4-4-PM-4-PM-444-PM-666-----------|
A----------------------5-5-PM-5-5-PM-5-PM-555-PM-555-----------|
E-2222-2222-2222-2222------------------------------------------|


guitar 2:
e------------------------------------------------|
B---10-(8x)---9--(8x)----7-9--7-9----------------|
G---11--------11---------7-7--7-7----------------|
D---12--------12---------------------------------|
A------------------------------------------------|
E------------------------------------------------|


chorus:

guitar 1
e--55555--55555--22222--55555----------------------|
B--55555--55555--22222--55555----------------------|
G--66666--77777--22222--77777----------------------|
D--77777--77777--44444--77777----------------------|
A--77777--55555--44444--55555----------------------|
E--55555---------22222-----------------------------|

guitar 2:
e---------------------------------------------------------------------------|
B-14-14-14-14-14-14-14-15-15-15-15-15--14-14-14-14-14-14-14--15-15-15-15-15-|
G-14-14-14-14-14-14-14-14-14-14-14-14--14-14-14-14-14-14-14--14-14-14-14-14-|
D-14-14-14-14-14-14-14-12-12-12-12-12--14-14-14-14-14-14-14--12-12-12-12-12-|
A---------------------------------------------------------------------------|
E---------------------------------------------------------------------------|

verse 2:
guitar 1
e--------------------------------------------------------------|
B--------------------------------------------------------------|
G--------------------------------------------------------------|
D--------------------------4----4--6v------4----4---6v---------|
A----------------------5-5----5--------5------5----------------|
E-2222-2222-2222-2222------------------------------------------|

guitar 2:
e------------------------------------------------|
B---10-(8x)---9--(8x)----7-7--7-7----------------|
G---11--------11---------7-7--7-7----------------|
D---12--------12---------------------------------|
A------------------------------------------------|
E------------------------------------------------|

pre-chorus: so wont you break free...

guitar 1
e--------------------------------------------------------------|
B--------------------------------------------------------------|
G----------------------(palm mute)-----------------------------|
D----------------------4-4-PM-4-4-PM-4-PM-444-PM-666-----------|
A----------------------5-5-PM-5-5-PM-5-PM-555-PM-555-----------|
E-2222-2222-2222-2222------------------------------------------|


guitar 2:
e------------------------------------------------|
B---10-(8x)---9--(8x)----7-9--7-9----------------|
G---11--------11---------7-7--7-7----------------|
D---12--------12---------------------------------|
A------------------------------------------------|
E------------------------------------------------|
bridge:

guitar 1
e------------------------------------------------------------------|
B------------------------------------------------------------------|
G--999999--11-11-11-11-11-11----7-7-7-7-7-7-7-7-7-7-7-7-7-7-7-7-7--|
D--999999--11-11-11-11-11-11----7-7-7-7-7-7-7-7-7-7-7-7-7-7-7-7-7--|
A--777777---9--9--9--9--9--9----5-5-5-5-5-5-5-5-5-5-5-5-5-5-5-5-5--|
E------------------------------------------------------------------|


guitar 2
e-----------------22222222----------------|
B-----------------33333333----------------|
G---12222---------23333333----------------|
D---22222--44444--------------------------|
A---22222--44444--------------------------|
E---00000--22222--------------------------|

breakdown:

guitar 1
e----------------------------------------|
B--141414--171717--141414--171717--------|
G--141414--161616--141414--161616--------|
D--141414--141414--141414--141414--------|
A----------------------------------------|
E----------------------------------------|


the song enters...

guitar 1

e-----------------------------------------|
B--141414--151515--141414--151515---------|
G--141414--141414--141414--141414---------|
D--141414--141414--141414--141414---------|
A-----------------------------------------|
E-----------------------------------------|

guitar 2
e----------------------------------------------|
B----------------------------------------------|
G----------------------------------------------|
D----------------------------------------------|
A---9(8x)--/11(4x)-----------------------------|
E----------------------------------------------|


guitar 1

e-----------------------------------------|
B--141414--151515--141414--151515---------|
G--141414--141414--141414--141414---------|
D--141414--141414--141414--141414---------|
A-----------------------------------------|
E-----------------------------------------|

guitar 2
e--17--16--7--9--17--16--10--9---------------------|
B-------------------------------10--9--------------|
G--------------------------------------------------|
D--------------------------------------------------|
A--------------------------------------------------|
E--------------------------------------------------|


ending: so Won’t you break free, won’t you break
Won’t you break free?
Suggest correction What's this?
You can suggest a correction to this tab. Community and Mods will review your correction and vote to approve or reject it.
comments
print report bad tab
1 comment total.
0 reply
dannyosaca 14 wrote on November 15 2007, 11:12 pm

***** i mean great... keep it rock bro. :) God Bless

I want to post or [tab]
guest
You may want to rate the tab now too:
select rating
Please do not post tabs as comments. Select "correction" instead!