Oops, an error
Loading. Please wait.

Desperate People Tab

version 2
version 2

Whole song

3,008 views 1 this week
1 commentread comment
1 2 3 4 5
please rate
add to favorites
launch autoscroll
font size
0
reset
how to read this tab
guitar tuner
Tab Pro tools
  • play this tab
  • loop segment
  • change instrument
  • show fretboard
  • metronome
×
Best way to learn
"Desperate People"
Autoscroll
slow
fast
+/-
esc
set tempo
stop
Contributor
Difficulty
novice
Tabs
Intro
Played by an acoustic initially:
-----0---0--------0---3-------------|
-------1---1--------1---1-----------|
---0------------0-------------------|
-3------------2---------------------|
------------------------------------|
------------------------------------|

Electric part (with the usual dotted 8th note delay):
-----0---0--------0---3h5-----------|
-------1---1--------1---------------|
---0------------0-------------------|
-3------------2---------------------|
------------------------------------|
------------------------------------|

Repeat three times, followed by:

--------------------------3---------|
-----5-5---5--------5-5-------------|
---5-----5---5----5-----5---5-------|
------------------------------------|
-3----------------------------------|
----------------3-------------------|

Chords:
F C/E (x2) for the acoustic part
F C/E F C/E
F C/E C C/G for the electric part.

Verse
Play the electric part.

Pre-Chorus
-5-----------------------------------|
---6---6---5--------6--------5-------|
-----7-------5---5----5---5----5---5-|
---------------7--------7--------5---|
-------------------------------------|
-------------------------------------|

-5---------------------------------3-|
---6---6---5--------6------------1---|
-----7-------5---5----5---5----0-----|
---------------7--------7----3-------|
-------------------------------------|
-------------------------------------|

Chords:
Dm Am F C
Dm Am F F

Chorus
Strum
------------------------------10------|
-13---12---13---13---13---12--10---13-|
-12---12---12---10---12---12--10---10-|
-10---12---10---10---10---12-------10-|
--------------------------------------|
--------------------------------------|

Chords:
C G Am F
C G Dm F

Pre-Verse (Instrumental)
-------------------------------8----|
-10-8---------------10-8------------|
-10-9-5-7-9-9b10r9--10-9-5-7-9------|
------------------------------------|
------------------------------------|
------------------------------------|
Use the verse's chords.

Final Chorus
Strum
------------------------------------|
------------------------------------|
-12---10--9--10----12---10--14--17--|
------------------------------------|
-10---8---7--8-----10---8---12--15--|
------------------------------------|
comments
We did not receive enough feedback on this tab! Please rate:
print report bad tab
1 2 3 4 5
1 comment total.
0 reply
BeyondGlory wrote on December 26 2013, 07:22 pm

I believe the pre-verse instrumental should be:

-12------10-10-10-10| -15-15-15-15-13-13-13-13|
---12--10-----------| ------------------------|
--------------------| ------------------------|
--------------------| ------------------------|
--------------------| ------------------------|
--------------------| x3 ------------------------|

-12------10-10-10-10| -15-15-15-13-13-13-13-13-17-17-17-19-19-19-19-19|
---12--10-----------| ------------------------------------------------|
--------------------| ------------------------------------------------| --------------------| ------------------------------------------------|
--------------------| ------------------------------------------------|
--------------------| x2------------------------------------------------|

I want to post or [tab]
guest
You may want to rate the tab now too:
select rating
Please do not post tabs as comments. Select "correction" instead!