Oops, an error
Loading. Please wait.

Evermore Tab

version 2
version 2

Whole song

1,818 views 1 this week
no commentswrite comment
1 2 3 4 5
3 more votes to show rating
add to favorites
launch autoscroll
font size
0
reset
how to read this tab
guitar tuner
Autoscroll
slow
fast
+/-
esc
set tempo
stop
Help us to improve Ultimate-Guitar.com Take our survey!
×
Artist: United Live
Song:   Evermore
Album:  For All You've Done


Intro:
   Am/Em  C        G   D
e|----7------------7-------|   x4
H|------8-7b---------8-7b--|
G|-----------9-------------|
D|-------------------------|
A|-------------------------|
E|-------------------------|


Verse:

Riff 1:

(distorted)
  Em           C                G                D
e|--------------------10---8---------------------------------|
H|----8----8--------8----8---8------8----8----8-7-8-7-8-7----|
G|---0----0-------9----------------0----0--(0)---------------|
D|-9----9----9-10----------------9----9----------------------|
A|-----------------------------------------------------------|
E|-----------------------------------------------------------|

Riff 2:

(distorted)
  Em           C                G                D
e|--------------------10---8-----------------14----------------| this is
H|----8----8--------8----8---8------8----8------15-------------| played two
G|---0----0-------9----------------0----0----------14----------| times during
D|-9----9----9-10----------------9----9----9----------16-14----| the song, can
A|-------------------------------------------------------------| be find out
E|-------------------------------------------------------------| easily


Solo:

(distorted)
e|-----------------------------------------------------------------------|
H|-------12-12-12---------12-12-13---------------------------------------|
G|-9-9-9----------9-9-9-9----------11b12b11b12b11b12b11b12b11b12b12b11---|
D|--------------------------------------------------------------------12-|
A|-----------------------------------------------------------------------|
E|-----------------------------------------------------------------------|


e|--------------------------------------------------------|
H|-----12-12-12---------12-12-13----------12-13-12-14-12~-|
G|-9-9----------9-9-9-9----------11-12-14-----------------|
D|--------------------------------------------------------|
A|--------------------------------------------------------|
E|--------------------------------------------------------|


e|-------8------------------10---8---------8----------------------|fast
H|-----8---8---8--------8------8---8-----8---8---8--------8-------|
G|---9-------9---9----9---9------------9-------9---9----9---9-11~-|
D|-9---------------10----------------9---------------10-----------|
A|----------------------------------------------------------------|
E|----------------------------------------------------------------|


e|-------8------------------10---8---------8----------------8--------|fast
H|-----8---8---8--------8------8---8-----8---8---8--------8---8------|
G|---9-------9---9----9---9------------9-------9---9----9-------11-9-|
D|-9---------------10----------------9---------------10--------------|
A|-------------------------------------------------------------------|
E|-------------------------------------------------------------------|


This should be correct, anyway it sounds better than current versions.
These are only the riffs, the chords can be found everywhere.
Actually the e-guitar plays another riff during the chorus but this is only the chord notes.
Please try to find out timing by yourself, it's not difficult.
Comments/corrections welcome.
God bless.
Suggest correction
Give kudos to tab author, rate the tab!
1 2 3 4 5
comments
print report bad tab
guest
You may want to rate the tab now too:
select rating
Wanna post a correction for this tab? Suggest correction