Oops, an error
Loading. Please wait.

Everything To Me Tab

332 views 1 this week
no commentswrite comment
1 2 3 4 5
please rate
add to favorites
launch autoscroll
font size
0
reset
how to read this tab
guitar tuner
Autoscroll
slow
fast
+/-
esc
set tempo
stop
Help us to improve Ultimate-Guitar.com Take our survey!
×
Author
Difficulty
novice
Everything to me by United live

Intro:
    C                       G                       Am
E|--0-----0-----0-----0-------------------------------------------------------|
B|-----1-----1-----1-----1--0-----0-----0-----0-----1-----1-----1-----1-------|
G|-----------------------------0-----0-----0-----0-----2-----2-----2-----2----|
D|----------------------------------------------------------------------------|
A|----------------------------------------------------------------------------|
E|----------------------------------------------------------------------------|

    F                       C                       G
E|--------------------------0-----0-----0-----0-------------------------------|
B|--1-----1-----1-----1--------1-----1-----1-----1--0-----0-----0-----0-------|
G|-----2-----2-----2-----2-----------------------------0-----0-----0-----0----|
D|----------------------------------------------------------------------------|
A|----------------------------------------------------------------------------|
E|----------------------------------------------------------------------------|

    Am                          F
E|------------------------------------------------------7h8-------------------|
B|--1-----1-----1-----1---------1-----1-----1-----1----------8----------------|
G|-----2-----2-----2-----2---------2-----2-----2-----2------------------------|
D|----------------------------------------------------------------------------|
A|----------------------------------------------------------------------------|
E|----------------------------------------------------------------------------|
Suggest correction
Give kudos to tab author, rate the tab!
1 2 3 4 5
comments
print report bad tab
guest
You may want to rate the tab now too:
select rating
Wanna post a correction for this tab? Suggest correction