Oops, an error
Loading. Please wait.

From The Inside Out Tab

version 1
version 1

Whole song

Interactive

10,304 views 1 this week
4 commentsread comments
1 2 3 4 5
accurate
x 5
add to favorites
launch autoscroll
font size
0
reset
how to read this tab
guitar tuner
Autoscroll
slow
fast
+/-
esc
set tempo
stop
Help us to improve Ultimate-Guitar.com Take our survey!
×
Author
rik_ki 55
THIS IS MY FIRST TAB.....BUT I THINK ITS IT CORRECT........


Intro: F-C-G
e------------12--------12------------------------------|
b-------13----------13----13-15-12---------------------|
g-12h14---14-----12----------------12------------------|
d------------------------------------------------------|
a------------------------------------------------------|
e------------------------------------------------------|

VERSE 1
F-C-G 2X
Am-F-C-G 2X

INTRO AGAIN BUT ONLY 2X

VERSE 2
F-C-G 2X
Am-F-C-G 2X

CHORUS 1
F-C-Am-G
F-Am-G-D

INTRO 2X

VERSE 2

CHORUS 1
CHORUS 2: THE EVERLASTING PART GET LOUDER
Am-F-C-G 2X
C-F-G-Am=F=G=F=G

SOLO CHORDS

F-Am-G-C-Am-G-F

Solo-

e-(16x)----(16x)-------------------------------------------------|
b-13-13----1716---12h13----------13h12---------------------------|
g-14h12----17----------14/16/12--------14-14/16------------------|
d------------------------------------------------15-14-12~~~-----|
a----------------------------------------------------------------|


e-----(12)-I--------------17-----17-----17----17-----17----17-------19--|
b-(13)-----I13--12---17--15---15-----15----15----15-----15----15/17-----|
g----------I14--12---17--17---------------------------------------------|
d----------I---^----------^---------------------------------------------|
a----------I---^----------^---------------------------------------------|
e-----(go between these 2)-(do the same)--------------------------------|

REPEAT CHORUS 1
REPEAT CHORUS 2 2X

e|--------------------5----3-----------------|
B|-----------------------------5-------------|
G|----7---5---4-------------------5----------| REPEAT FOR A COUPLE OF TIMES
D|---------------5---------------------------|
A|-------------------------------------------|
E|-------------------------------------------|


THANK YOU
GOD BLESS!!!!!!
Suggest correction
What's this?
You can suggest a correction to this tab. Community and Mods will review your correction and vote to approve or reject it.
comments
print report bad tab
4 comments total. Showing first comments.
0 reply
blink_boi 58 wrote on August 15 2006, 11:53 pm

hey...its correct..just this thing you missed in the intro....anyways...cool tab...God Bless...:)...

Intro:
e--------------12-------12------------------------------|
b-------13----------13----13-15-12---------------------|
g-12h14---14-12----12----------------12------------------|
d------------------------------------------------------|
a------------------------------------------------------|
e------------------------------------------------------|

0 reply
jonboytang 296 wrote on September 30 2006, 03:10 pm

Actually it goes like this:

Intro:
e--------------12--|-----12----------------------|
b-------13---------|---13----13-15-12------------|
g-12h14---12-14----|-12---------------12---------|
d------------------|-----------------------------|
a------------------|-----------------------------|
e------------------|-----------------------------|

0 reply
guitarboy2828 14 wrote on October 27 2006, 07:28 am

e--------------------------------------------------12-12-12-12-13-13-13-13-15-15-15-15
b---13-13-13-13-13-13-13-13-12-12-12-13-13-13-13---13-13-13-13-13-13-13-13-13-13-13-13
g---12-12-12-12-12-12-12-12-12-12-12-12-12-12-12--------------------------------------
d-------------------------------------------------------------------------------------
a-------------------------------------------------------------------------------------
E-------------------------------------------------------------------------------------

e---------------------------------------------------12--------------15-15-15-15-------
b----\13-12-----------13-12-----------------------13-----\13-12-----13-13-13-13-------
g-----------14-16-12---------14-14-16-14------------------------14--------------------
d-----------------------------------------15-14-12------------------------------------
a-------------------------------------------------------------------------------------
E-------------------------------------------------------------------------------------

e------------15-15-15-15-----17----17----17----19-------------------------------------
b---13-12----13-13-13-13--15----15----15----17----------------------------------------
g---------14--------------------------------------------------------------------------
d-------------------------------------------------------------------------------------
a-------------------------------------------------------------------------------------
E-------------------------------------------------------------------------------------

I believe that is a more correct solo? I duno though, just sounds good to me!

guest
You may want to rate the tab now too:
select rating
Please do not post tabs as comments. Select "correction" instead!