Oops, an error
Loading. Please wait.

Hosanna Bass Tab

4,826 views 3 this week
no commentswrite comment
1 2 3 4 5
please rate
add to favorites
launch autoscroll
font size
0
reset
guitar tuner
Autoscroll
slow
fast
+/-
esc
set tempo
stop
Help us to improve Ultimate-Guitar.com Take our survey!
×
Author
Difficulty
novice
HOSANNA
UNITED LIVE
ALL OF THE ABOVE {2007}

BASS GUITAR
if you have a question just add
chijero@yahoo.com
Christ to The World church
jerico @ GOD`S ARMY


Intro (2x)

G|-------------------------------------------|
D|-------------------------------------------|
A|---4-4-4-4-4-4-4-4-4-4-4-4-4-4-4-4---------|
E|-------------------------------------------|

G|-------------------------------------------|
D|-------------------------------------------|
A|-7-7-7-7-7-7-7-7-7-7-7-7-7-7-7-7-----------|
E|-------------------------------------------|

G|----------------------------------|
D|----------------------------------|
A|-9-9-9-9-9-9-9-9-9-9-9-9-9-9-9-9--|
E|----------------------------------|

G|----------------------------------|
D|----------------------------------|
A|-11-11-11-11-11-11-11-11-11-11-11-|
E|----------------------------------|

..going to the 1st verse slide back to...
G-----------|
D-----------|
A--\7-------|
E-----------|

....then silence

after nine counts, go to C# on the 3rd string


First Chorus

G|----------------------------------|
D|----------------------------------|
A|-11--/12--/14--/16--/12--/16--14--|
E|----------------------------------|

G|-----------------------------------|
D|-----------------------------------|
A|-11--/12--/14--/16--/12--/16--/14--|
E|-----------------------------------|

..then back to intro 1 times...

verse

G|----------------------------------|
D|----------------------------------|
A|-7-7-7-7-7-7-7-7-7-7-7-7-7-7-7-7--|
E|----------------------------------| (2x)

G|----------------------------------|
D|----------------------------------|
A|-4-4-4-4-4-4-4-4-4-4-4-4-4-4-4-4--|
E|----------------------------------| (2x)

G|-----------------------------------|
D|-----------------------------------|
A|-----------------------------------|
E|--2-2-2-2-2-2-2-2-2-2-2-2-2-2-2-2--| (2x)

G|-----------------------------------|
D|-----------------------------------|
A|-----------------------------------|
E|--0-0-0-0-0-0-0-0-0-0-0-0-0-0-0-0--|

G|----------------------------------|
D|----------------------------------|
A|-7-7-7-7-7-7-7-7-7-7-7-7-7-7-7-7--|
E|----------------------------------| (2x)

G|----------------------------------|
D|----------------------------------|
A|-4-4-4-4-4-4-4-4-4-4-4-4-4-4-4-4--|
E|----------------------------------| (2x)

G|-----------------------------------|
D|-----------------------------------|
A|-----------------------------------|
E|--2-2-2-2-2-2-2-2-2-2-2-2-2-2-2-2--| (2x)

G|----------------------------------------|
D|----------------------------------------|
A|--2-2-2-2-2-2-2-------------------------|
E|----------------------------------------|


Second Chorus

G|---------------------------------------|
D|---------------------------------------|
A|-------0-0-0--2-2-2-4-4-4--0-0-0-------|
E|-4-4-4---------------------------0-0-0-|

G|----------------------------------------|
D|----------------------------------------|
A|-2-2-2--2-2-2-------0-0-0--2-2-2--4-4-4-|
E|--------------4-4-4---------------------|

G|-----------------------------|
D|-----------------------------|
A|-----------------------------|
E|--0-0-0--2-2-2--4-4-4--4-4-4-|


instrumental

G|----------------------------------|
D|----------------------------------|
A|-4-4-4-4-4-4-4-4--7-7-7-7-7-7-7-7-|
E|----------------------------------|

G|----------------------------------|
D|----------------------------------|
A|----------------------------------|
E|-2-2-2-2-2-2-2-2--4-4-4-4-4-4-4-4-|

G|-----------------------------------|
D|-----------------------------------|
A|-4-4-4-4-4-4-4-4--7-7-7-7-7-7-7-7--|
E|------ ----------------------------|

G|----------------------------------|
D|----------------------------------|
A|----------------------------------|
E|-2-2-2-2-2-2-2-2--4-4-4-4-4-4-4-4-|

Bridge

G|---------------------------------|
D|---------------------------------|
A|-0-0-0-0-0-0-0-0-2-2-2-2-2-2-2-2-|
E|---------------------------------|

G|---------------------------------|
D|---------------------------------|
A|-----------------4-4-4-4-4-4-4-4-|
E|-0-0-0-0-0-0-0-0-----------------|

G|----------------------------------|
D|----------------------------------|
A|-2-2-2-2-2-2-2-2--4-4-4-4-4-4-4-4-|
E|----------------------------------|

G|-----------------|
D|-----------------|
A|-4-4-4-4-4-4-4-4-|
E|-----------------|
Suggest correction
What's this?
You can suggest a correction to this tab. Community and Mods will review your correction and vote to approve or reject it.
comments
We did not receive enough feedback on this tab! Please rate:
print report bad tab
1 2 3 4 5
guest
You may want to rate the tab now too:
select rating
Please do not post tabs as comments. Select "correction" instead!