Oops, an error
Loading. Please wait.

My God Tab

612 views 1 this week
no commentswrite comment
1 2 3 4 5
1 last vote to show rating
add to favorites
launch autoscroll
font size
0
reset
how to read this tab
guitar tuner
Autoscroll
slow
fast
+/-
esc
set tempo
stop
Help us to improve Ultimate-Guitar.com Take our survey!
×
Author
Title: My God
Song Sang By:United Live
Tabbed By: benjwashere (phoenxb@gmail.com)

Intro x2:

e|-----------------------------------|
B|-----------------------------------|
G|-----------------------------------|
D|-----------------------------------|
A|--7---7---6h7p6-6h7---7---7---9---9|
E|44-455-577-----7----44-455-577-777-|        


Verse:

A E B C#m
A E B
A E B C#m
A E B

This is how u play the verse

            A A           E E
e |-x-x-x-x-x-x---x-x-x-x-x-x---|
B |-x-x-x-x-x-x---x-x-x-x-x-x---|
G |-x-x-x-x-x-x---x-x-x-x-1-1---|  and it continues with the other chords
D |-x-x-x-x-7-7---x-x-x-x-2-2---|
A |-x-x-x-x-7-7---x-x-x-x-2-2---|
E |-x-x-x-x-5-5---x-x-x-x-x-x---|

* (x = means muted )

Pre-chorus: (strum once)

B C#m A
B C#m A

Chorus: (normal strumming)

E/G# A B X2
C#m B A B

Guitar 2(during chorus):
“……how much you mean, my (guitar 2 comes in here) god”

e|------------------|
B|------------------|
G|------------------|
D|------------------|
A|--444-6-7-6-22----|
E|------------------|

Verse

Pre-Chorus

Chorus x2

Guitar Solo:

Guitar 1:

e|----------------------------------------------------------------|
B|--222222544440000--10-1097-9-7-9--222222544440000---------------|
G|---------------------------------------------------2*-4*-6*-8*--|
D|----------------------------------------------------------------|
A|----------------------------------------------------------------|
E|----------------------------------------------------------------|

(* = let ring )

Guitar 2:
 
         (2:27)                        (2:34)
e|--------------------------------------5555-7777-9999-11-11-11-11|
B|--------10(x4)12(x4)10(x4)-77-9---------------------------------|
G|----------------------------------------------------------------|
D|----------------------------------------------------------------|
A|----------------------------------------------------------------|
E|----------------------------------------------------------------|

Bridge (This Is For You) :

Guitar 1:

e|---------------------|
B|---------------------|
G|---------------------|  (x4)
D|---------------------|
A|--7---7---6h7p6-6h7--|
E|44-455-577-----7-----|    

Guitar 2 plays the following chords:

G# A B   

Until the end of the bridge

Then it’s the chorus till the end……

Ok that’s all…I hope its right cuz this is what I heard
Suggest correction
Give kudos to tab author, rate the tab!
1 2 3 4 5
comments
print report bad tab
guest
You may want to rate the tab now too:
select rating
Wanna post a correction for this tab? Suggest correction