Oops, an error
Loading. Please wait.

Now That Youre Near Bass Tab

4,507 views 1 this week
no commentswrite comment
1 2 3 4 5
please rate
add to favorites
launch autoscroll
font size
0
reset
guitar tuner
Autoscroll
slow
fast
+/-
esc
set tempo
stop
Help us to improve Ultimate-Guitar.com Take our survey!
×
Author
Now That You're Near
artist: United Live
tuning: EADG
tabbed by tobatits

intro:

G|--------------------------|
D|------------2-2-----------|
A|--4-4-0-0-0-----2-2-2-----|
E|--------------------------|

verse:

G|--------------------------|
D|--2-----------------------|
A|---------0----4--0-0-2-2--|
E|--------------------------|

pre-chorus:

G|--------------------------|
D|------------2-2-----------|
A|--4-4-0-0-0-----2-2-2-----|
E|--------------------------|

chorus:

G|----------------------------------|
D|-2-222222-------------------------|
A|---------2222222-4444444-00000000-|
E|----------------------------------|



Suggest correction
Give kudos to tab author, rate the tab!
1 2 3 4 5
comments
print report bad tab
guest
You may want to rate the tab now too:
select rating
Please do not post tabs as comments. Select "correction" instead!