Oops, an error
Loading. Please wait.

Revolution Tab

version 1
version 1

Whole song

Interactive

304 views 1 this week
no commentswrite comment
1 2 3 4 5
x 3
add to favorites
launch autoscroll
font size
0
reset
how to read this tab
guitar tuner
Autoscroll
slow
fast
+/-
esc
set tempo
stop
Help us to improve Ultimate-Guitar.com Take our survey!
×
Author
Difficulty
novice
#----------------------------------PLEASE NOTE---------------------------------#
#This file is the author's own work and represents their interpretation of the #
#song. You may only use this file for private study, scholarship, or research. #
#------------------------------------------------------------------------------##

Title: Revolution
Artist: United Live
Album: United We Stand
Tabbed by: yohanand [providing tabs for christians worldwide]

*standard tuning

Legend:
^ = bend                       r = release bend
x = dumped string              % = pick continuously and rapidly
/ = slide up to the note indicated from a few frets below
\ = slide back a few frets from the note indicated 


Intro:
[lead guitar]

e|-9-9-9-9-9-9-9-9-|-7-7-7-7-7-7-7-7-|-6-6-6-6-6-6-6-6-|-7-7-7-7-7-7-7-7-|
b|-----------------|-----------------|-----------------|-----------------|
g|-----------------|-----------------|-----------------|-----------------|
D|-----------------|-----------------|-----------------|-----------------|
A|-----------------|-----------------|-----------------|-----------------|
E|-----------------|-----------------|-----------------|-----------------|

e|-7-7-7-7-7-7-7-7-|-6-6-6-6-6-6-6-6-|-----------------|-7-7-7-7-7-7-7-7-|
b|-----------------|-----------------|-9-9-9-9-9-9-9-9-|-----------------|
g|-----------------|-----------------|-----------------|-----------------|
D|-----------------|-----------------|-----------------|-----------------|
A|-----------------|-----------------|-----------------|-----------------|
E|-----------------|-----------------|-----------------|-----------------|


Chorus fill:

e|-------------|-------------|----------------|----------------|
b|-------------|-------------|----------------|----------------|
g|---6-6-6-6---|--/8-8-8-8---|--/10-10-10-10--|--/11-11-11-11--|
D|---x-x-x-x---|---x-x-x-x---|---x--x--x--x---|---x--x--x--x---|
A|---4-4-4-4---|--/6-6-6-6---|--/8--8--8--8---|--/9--9--9--9---|
E|-------------|-------------|----------------|----------------|

Guitar solo:

e|---------9-9-9-9-|---------7-7-7-7-|---------6-6-6-6-|---------7-7-7-7-|
b|-----7-----------|-----7-----------|-----7-----------|-----7-----------|
g|--8--------------|--8--------------|--8--------------|--8--------------|
D|-----------------|-----------------|-----------------|-----------------|
A|-----------------|-----------------|-----------------|-----------------|
E|-----------------|-----------------|-----------------|-----------------|

e|---------7-7-7-7-|---------6-6-6-6-|-----------------|---------7-7-7-7-|
b|-----7-----------|-----7-----------|-----6---9-9-9-9-|-----6-----------|
g|--6--------------|--6--------------|--6--------------|--7--------------|
D|-----------------|-----------------|-----------------|-----------------|
A|-----------------|-----------------|-----------------|-----------------|
E|-----------------|-----------------|-----------------|-----------------|

*repeat Chorus fill:

e|-------------|-------------|----------------|----------------|
b|-------------|-------------|----------------|----------------|
g|---6-6-6-6---|--/8-8-8-8---|--/10-10-10-10--|--/11-11-11-11--|
D|---x-x-x-x---|---x-x-x-x---|---x--x--x--x---|---x--x--x--x---|
A|---4-4-4-4---|--/6-6-6-6---|--/8--8--8--8---|--/9--9--9--9---|
E|-------------|-------------|----------------|----------------|

Background Lead:
(we want the world to know)


e|-----------------|-----------------|-----------------|-----------------|
b|-----------------|-----------------|-----------------|--------6-6-6-6--|
g|--------6-6-6-6--|--------6-6-6-6--|--------6-6-6-6--|-----------------|
D|-----4-----------|-----4-----------|-----4-----------|-----6-----------|
A|--6--------------|-----------------|-----------------|--5--------------|
E|-----------------|--7--------------|--6--------------|-----------------|

______________________________________________________________________________

* my rhythm guitar chords are available here:
http://www.ultimate-guitar.com/tabs/u/united_live/revolution_crd.htm
Suggest correction
Give kudos to tab author, rate the tab!
1 2 3 4 5
comments
print report bad tab
guest
You may want to rate the tab now too:
select rating
Wanna post a correction for this tab? Suggest correction