Oops, an error
Loading. Please wait.

Salvation Is Here Bass Tab

version 2
version 2

Whole song

5,771 views 1 this week
no commentswrite comment
1 2 3 4 5
x 5
add to favorites
launch autoscroll
font size
0
reset
guitar tuner
Autoscroll
slow
fast
+/-
esc
set tempo
stop
Help us to improve Ultimate-Guitar.com Take our survey!
×
Author
Difficulty
novice
Salvation Is here

intro: B~~~~


G|------------------------------------------------|
D|---9-9-9-9-9-9-9-9----9-9-9-9-9-9-9-9-9-9-------|
A|------------------------------------------------|
E|------------------------------------------------|

Verse:  B-G#m-F-E


G|------------------------------------------------|
D|---9-9-9-9-9-9----------------------------------|
A|----------------11-11-11-11-9-9-9-9-9-7-7-7-7-7-|
E|------------------------------------------------|

              G#m              E

Now....  It's gonna be alright....yeah!!!
G|-----------------------------------------------|
D|-----------------------------------------------|
A|-----------------------------------------------|
E|---4-4-4-4-4-4-4----0-0-0-0-0-0-0--------------|


Before 2nd verse do chords  B-E-F#-G#m

Chorus:   

        B         E      F#      G#m
Coz I know my.........

salvation is here.....

G|----------------------------------------------|
D|-------------9-9-9-11-11-11-9-9-9--------9----|
A|---11-11-11------------------------11-11---11-|
E|----------------------------------------------|


G|----------------------------------------------|
D|------------------------11-11-11-9-9----------|
A|--------11-11-11-9-9-9-----------------11-11--|
E|--7-7-7---------------------------------------|


G|----------------------------------------------|
D|--------------------9-9-9---------9-9-9-------|
A|---7-7-7--11-11-11--------11-11-11------11-11-|
E|----------------------------------------------|


G|-----------------11-11-11--------------------|
D|---------------------------11-11-11--9-9-----|
A|--------11-11-11------------------------9-9--|
E|--9-9-9--------------------------------------|


salvation is here.....salvation that died.....

Bridge:     B      E      F#      G#m 

salvation is here!!!

outro: (do intro chords)

tabbed by Ferdinand Bato
Suggest correction
comments
print report bad tab
guest
You may want to rate the tab now too:
select rating
Wanna post a correction for this tab? Suggest correction