Oops, an error
Loading. Please wait.

Take It All Bass Tab

version 2
version 2

Whole song

2,486 views 1 this week
no commentswrite comment
1 2 3 4 5
3 more votes to show rating
add to favorites
launch autoscroll
font size
0
reset
guitar tuner
Autoscroll
slow
fast
+/-
esc
set tempo
stop
Help us to improve Ultimate-Guitar.com Take our survey!
×
Author
Difficulty
novice
Take It All By Hillsong United.....
Tabbed by:Ben Boerjan
The whole verse goes like this

Verse1
G|------------------------------------------------|
D|------------------------------------------------|
A|----------------------66------------------------|
E|--------77-777-777-66---------------------------|


Chorus
G|-------------------------------------------------------|
D|-------------------------------------------------------|
A|--222-------------------77777777-------222--------4~-4~|
E|------22222---44444------------------------222--4------|


Verse 2
G|------------------------------------------------|
D|------------------------------------------------|
A|----------------------66------------------------|
E|--------77-777-777-66---------------------------|


Chorusx2
G|-------------------------------------------------------|
D|-------------------------------------------------------|
A|--222-------------------77777777-------222--------4~-4~|
E|------22222---44444------------------------222--4------|


Bridge
G|----------------------------------------------------------------|
D|----------------------------------------------------------------|
A|--444--------------444--------------444-------------------------|
E|------44--2--00---------44---2-----------44--2--00---2~---------|

Chorusx3
G|-------------------------------------------------------|
D|-------------------------------------------------------|
A|--222-------------------77777777-------222--------4~-4~|
E|------22222---44444------------------------222--4------|

at the end of the song just hit the A string fret 4 again for the last take it all and 
the entire song in an F#

I hope that you have success with this song and it is an awesome if you have any 
e-mail me at cardinalsdude6@yahoo.com
Suggest correction
Give kudos to tab author, rate the tab!
1 2 3 4 5
comments
print report bad tab
guest
You may want to rate the tab now too:
select rating
Wanna post a correction for this tab? Suggest correction