Oops, an error
Loading. Please wait.

Take It All Tab

version 2
version 2

Whole song

2,616 views 6 this week
1 commentread comment
1 2 3 4 5
excellent!
x 1
add to favorites
launch autoscroll
font size
0
reset
how to read this tab
guitar tuner
Tab Pro tools
  • play this tab
  • loop segment
  • change instrument
  • show fretboard
  • metronome
Autoscroll
slow
fast
+/-
esc
set tempo
stop
Contributor
Take it all tabs! (updated)

Intro

E|------------------------14141414--------------------------12121212-|
B|-14141414-121212-111111-----------14141414-121212-1111111----------|
G|-------------------------------------------------------------------|
D|-------------------------------------------------------------------|
A|-------------------------------------------------------------------|
e|-------------------------------------------------------------------|
                           v^v^v^ (to achieve "jumping effect)

after twice, you'll hear harmonics instead of playing 12s on the e string
so..its played often before the chorus

E|----(7)-(5)--------------|
B|-(7)(7)-(5)--------------|
G|-(7)---------------------|
D|-------------------------| play around there (update)
A|-------------------------|
e|-------------------------|

Verse and intro
   B           Bb D#
E|------------------------|
B|------------------------|
G|-4444-444-444-33-88-----|
D|-4444-444-444-33-88-----|
A|-2222-222-222-11-66-----|
e|------------------------|

Chorus
   B F# G# E  B  F#
E|-----------------------------------------|
B|-----------------------------------------|
G|-4-----------4--------8b8b8b8b8b-8r------| Bend 8 To 9 
D|-4--4--6--2--4--4-------------------9----|
A|-2--4--6--2--2--4------------------------|
e|----2--4--0-----2------------------------|

Guitar 2 while guitar 1 is doing the bend
                       C#m
E|-----------------------------------------
B|----------------------------------------- Bend 9 down and hold 
G|----------------------------------------- then play 7
D|-----------------------------------------
A|-----------------------------------------
e|-----------------------9b(Hold)--7-------

Pre-Bridge
E|------------------|
B|------------------|
G|-444-666-888-999--|
D|-xxx-xxx-xxx-xxx--|
A|-222-444-666-777--|
e|------------------|

Bridge
E|-------------------|
B|-------------------|
G|-666---------------|
D|-666--666--44-2----|
A|-444--666--44-2----|
e|------444--22-0----|

E|-------------------2-----------|
B|-------------------------------|
G|-666----------3b4r----3b4r-----|
D|-666--666--44------------------|
A|-444--666--44------------------|
e|------444--22------------------|

E|-------------------|
B|-------------------|
G|-666---------------|
D|-666--666--44-2----|
A|-444--666--44-2----|
e|------444--22-0----|

E|-----------------|
B|-----------------|
G|-4444444---------| before repeating bridge
D|-xxxxxxx---------|
A|-2222222---------|
e|-----------------|

E|-------------------|
B|-------------------|
G|-666---------------|
D|-666--666--44-2----|
A|-444--666--44-2----|
e|------444--22-0----|

E|--------------2~-----|(vibrato)
B|--------------2~-----| 
G|-666-----------------|
A|-666--666--44--------|
A|-444--666--44--------|
e|------444--22--------|

E|-------------------|
B|-------------------|
G|-666---------------|
D|-666--666--44-2----|
A|-444--666--44-2----|
e|------444--22-0----|


E|-------------------------------|
B|-------------------------------|
G|-4444444-----------------------|
D|-xxxxxxx-----------------1-1---|
A|-2222222--222-222-22-1-1-------|
e|-------------------------------|
            Bass line   
comments
We did not receive enough feedback on this tab! Please rate:
print report bad tab
1 2 3 4 5
1 comment total.
0 reply
tobatits0405 wrote on May 23 2007, 10:17 pm

5 stars for you sir...God bless u :)

I want to post or [tab]
guest
You may want to rate the tab now too:
select rating
Please do not post tabs as comments. Select "correction" instead!