Oops, an error
Loading. Please wait.

Take It All Tab

version 3
version 3

Whole song

14,318 views 6 this week
1 commentread comment
1 2 3 4 5
please rate
add to favorites
launch autoscroll
font size
0
reset
how to read this tab
guitar tuner
Tab Pro tools
  • play this tab
  • loop segment
  • change instrument
  • show fretboard
  • metronome
×
Best way to learn
"Take It All"
Autoscroll
slow
fast
+/-
esc
set tempo
stop
Contributor
Difficulty
novice
Take It All by United Live

INTRO
Bass Intro
(basically the same as United)

G|--------------------------|
D|--------------------------|  (x8)     8 times before the electric starts to play
A|----------------66--------|
E|-777-777-777-66-----------|


Electric Lead
(This is wat sets the difference between hillsong n united)
E|-------9----------------------9h11-------9-------------------------------|
B|---------------12-------11-----------------------12----11----11s12s11----|
G|----11------11-------11---------------11------11----------11----------11-|  (x2)
D|--9-------9--------9--------9-------9-------9--------9-------------------|
A|-------------------------------------------------------------------------|
E|-------------------------------------------------------------------------|

VERSE 1
in the CD theres nothing playin, but if u wanna play, play the chords:

B                    B             B                                 G#m
Searchin the world...Freedome we...Carry the cross...died n rose again My God,
E
Ill Only...

INSTRUMENTAL 1
The exact same as the intro for the electric n bass, but once

VERSE 2

u play the electric n bass intro throughout the entire 2nd verse.
but when leading to the chorus its cut:

E|-------9----------------------9h11----------------|
B|---------------12-------11------------------------|  this part is in the end
G|----11------11-------11---------------------------|  leading to the chorus
D|--9-------9--------9--------9------66-66-22222222-|
A|-----------------------------------66-66-22222222-|
E|-----------------------------------44-44-00000000-|

CHORUS

B F#m G#m E
B F#m G#m (if u want u can play C#m once and let the amp n echo do its thing)

INSTRUMENTAL 2
(Same as the first one)

VERSE 2 (Again)
(Exact Same)

CHORUS x2

BUILD-UP TO BRIDGE
E|-------------------------------------------------------|
B|---12-12-12-12--14-14-14-14--16-16-16-16--17-17-17-17--|
G|---x--x--x--x---x--x--x--x---x--x--x--x---x--x--x--x---|
D|--9--9--9--9---11-11-11-11--13-13-13-13--14-14-14-14---|
A|-------------------------------------------------------|
E|-------------------------------------------------------|

BRIDGE
C#m G#m F#m E
C#m G#m F#m    (x2)
C#m G#m F#m E
B

CHORUS
comments
We did not receive enough feedback on this tab! Please rate:
print report bad tab
1 2 3 4 5
1 comment total.
0 reply
edrickcheok95 wrote on January 16 2011, 12:05 am

Are you sure the intro is that way? i like this version but it doesn't really sound right..

I want to post or [tab]
guest
You may want to rate the tab now too:
select rating
Please do not post tabs as comments. Select "correction" instead!