Oops, an error
Loading. Please wait.

This Is How We Overcome Bass Tab

6,896 views 1 this week
no commentswrite comment
1 2 3 4 5
please rate
add to favorites
launch autoscroll
font size
0
reset
guitar tuner
Autoscroll
slow
fast
+/-
esc
set tempo
stop
Help us to improve Ultimate-Guitar.com Take our survey!
×
Author
Difficulty
artist: united live
title: This is how we overcome
friendster:gatecrusher07@yahoo.com
kuya Richard's Style
tabbed by Ferdinand Bato

intro/verses:
B|--------------------5-----5-5---------------------------|
D|-----5-----5-5---------------------5-5------------------|
A|----------------3------3--------------------------------|
E|--3-----3----------------------3---------111///\\\333\\-|

chorus:
B|----------------------------------------------|
D|-------------------------5/7---5--------------|
A|-3-3---5/7---5--------------------7--5--3-----|2x
E|----------------7-5-3-3-----------------------|

B|-------------------------------------------------------|
D|-------------------------5/7---5-----------------------|
A|-3-3---5/7---5--------------------7--5-----------------|
E|----------------7-5-3-3-----------------111///\\\333\\-|

bridge:

B|----------------------|
D|----------------------|4x (slow)
A|---3------3-----------|
E|-------3------3-------|

B|---------------------------------------------|------------|
D|----------------------(fast)-----------------|------------|
A|---3333333-----------------------------------|-3-(pause)--|
E|----------3333333333--111111111--333333333---|------------|
Suggest correction
Give kudos to tab author, rate the tab!
1 2 3 4 5
comments
print report bad tab
guest
You may want to rate the tab now too:
select rating
Wanna post a correction for this tab? Suggest correction