Oops, an error
Loading. Please wait.

To The Ends Of The Earth Tab

version 1
version 1

Solo

Interactive

3,720 views 3 this week
no commentswrite comment
1 2 3 4 5
3 more votes to show rating
add to favorites
launch autoscroll
font size
0
reset
how to read this tab
guitar tuner
×
Best way to learn
"To The Ends Of The Earth"
Autoscroll
slow
fast
+/-
esc
set tempo
stop
this is my fave solo coz it's quite cool and this version is for the youth so all the
youth there will like this too......
here's how to play it
  
e|------------------------------------------------------------|
B|--------7-8-----------8-8/12-10-10--------------------------|
G|-5h7/9~-----7-----7-9---------------------------------------|
D|--------------7-9-------------------------------------------|
A|------------------------------------------------------------|
E|------------------------------------------------------------|

e|-15-15-14-14-12-12-10-10----------------------------10-10~~-|
B|------------------------12-10-8-10----------8-10-12---------|
G|-----------------------------------7-7/9-11-----------------|
D|------------------------------------------------------------|
A|------------------------------------------------------------|
E|------------------------------------------------------------|

sory for this very late tab but it's good......
any comments?e-mail me at master_tablature@yahoo.com
Suggest correction
Give kudos to tab author, rate the tab!
1 2 3 4 5
comments
print report bad tab
guest
You may want to rate the tab now too:
select rating
Wanna post a correction for this tab? Suggest correction