Oops, an error
Loading. Please wait.

What The World Will Never Take Bass Tab

version 1
version 1

Whole song

Interactive

4,489 views 3 this week
no commentswrite comment
1 2 3 4 5
accurate
x 3
add to favorites
launch autoscroll
font size
0
reset
guitar tuner
Autoscroll
slow
fast
+/-
esc
set tempo
stop
Help us to improve Ultimate-Guitar.com Take our survey!
×
Author
pozzire 384
Title: What The World Will Never Take
Artist: United Live
Album: Look to You
Tabber: Pozzire

Intro/Verse:    

G|--------------------------------|
D|-----------------0-0------0-0---|
A|---0-0----0-0-------------------|
E|--------------------------------|

Pre-Chorus: D F# B
            D A B A
G|----------------------------------|
D|----------------------------------|
A|---55------22----55--0000-22222-0-|
E|-------22-------------------------|


Chorus: 

G|---------------------------------|
D|----------0000-------------------|
A|-00000000---------------2222-----|
E|--------------22222222-----------|
 
Then
G|---------------------------------|
D|---------------------------000---|
A|-00000000-------------22---------|
E|----------2-2-2-2-222------------|

Verse again

Pre-chorus again

Chorus again

Bridge And first half of solo (Figure out how much it repeats)
G|----------------------------------|
D|----------------------------------|
A|-00000000\12-12-12-12-12-12-12-12-| 
E|----------------------------------|

When the guitar starts bass cut out until second part

SECOND HALF OF Solo:

Bass riff
G|---------------------------------------------|
D|------------------------------------8h999999-|
A|-9-9-9-9-11-8-8-8-8/0-0-0-0-2222222----------|
E|---------------------------------------------|

Chorus: 2X

G|---------------------------------|
D|----------0000-------------------|
A|-00000000---------------2222-----|
E|--------------22222222-----------|
 
Then
G|---------------------------------|
D|---------------------------000---|
A|-00000000-------------22---------|
E|----------2-2-2-2-222------------|



Outro (Repeat til end)
No-one Could ever take you away
G|---------------------|
D|--------0000---------|
A|-00000000------------|
E|---------------------|
 
/= Slide down
\= slide up

Any probs email me lil_punk_rocker182@hotmail.com
Suggest correction
What's this?
You can suggest a correction to this tab. Community and Mods will review your correction and vote to approve or reject it.
comments
We did not receive enough feedback on this tab! Please rate:
print report bad tab
1 2 3 4 5
guest
You may want to rate the tab now too:
select rating
Please do not post tabs as comments. Select "correction" instead!