Oops, an error
Loading. Please wait.

What The World Will Never Take Tab

version 1
version 1

Solo

Whole song

Interactive

7,102 views 6 this week
3 commentsread comments
1 2 3 4 5
excellent!
x 3
add to favorites
launch autoscroll
font size
0
reset
how to read this tab
guitar tuner
Autoscroll
slow
fast
+/-
esc
set tempo
stop
Help us to improve Ultimate-Guitar.com Take our survey!
×
Author
Song: What The World Will Never Take
Artist: Hillsong United
Album: Look To You

Key: A


e|-----5-----5---5---5-----5-7-7b-5-|
B|-7-7---7-7---7---7---6-6----------|
G|----------------------------------|
D|----------------------------------|
A|----------------------------------|
E|----------------------------------|

e|----------------------------------|
B|----------------------------------|
G|-----6-----6---------8-----8---8--|
D|-7-7---7-7---7-7-9-9---9-9---9----|
A|----------------------------------|
E|----------------------------------|

e|-----5-----5---5---5-----5-7-7b-5-|
B|-7-7---7-7---7---7---6-6----------|
G|----------------------------------|
D|----------------------------------|
A|----------------------------------|
E|----------------------------------|

e|----------------------------------|
B|----------------------------------|
G|-----6-----6---------8------------|
D|-7-7---7-7---7-7-9-9---9-9-9------|
A|----------------------------------|
E|----------------------------------|

e|----------------------------------|
B|----------------------------------|
G|-8---8-----8-----8---8-----8------|
D|---9---9-9---9-9---9---9-9---9-9--|
A|----------------------------------|
E|----------------------------------|

| /  slide up
| \  slide down
| h  hammer-on
| p  pull-off
| ~  vibrato
| +  harmonic
| x  Mute note
===============================================================================

Tabbed by: J F - element
Email: jf.element@gmail.com
Suggest correction
Give kudos to tab author, rate the tab!
1 2 3 4 5
comments
print report bad tab
3 comments total.
0 reply
Rockn_Clay 131 wrote on June 24 2005, 12:00 am

the solo is rite but could u tab the rest of the song?

0 reply
jf_element 35 wrote on July 10 2005, 12:00 am

actually someone tabbed the whole song here http://www.ultimate-guitar.com/tabs/h/hillsongs/what_the_world_will_never_take_tab.htm

urm but i play it like this:
VERSE
E|---------------- \ ---------------- \
B|---------------- | ---------------- |
G|---------------- \ ---------------- \
D|-----7---6-6-6/7 / X2 -0-0-7---6-6-6/7 /
A|-0-0------------ | ---------------- |
E|---------------- / ---------------- /

PRE-CHORUS
E|----------------------------------
B|----------------------------------
G|-6-6-4-6---6-4-6---6-4-6-6b7b6-4-6 X2
D|----------------------------------
A|----------------------------------
E|----------------------------------

CHORUS
chords (play all power chords, constant downstroke):
A, D, F#m, Bm, D
A, F#m, Bm, D, A

yup thats abt it i guess.. ^^

0 reply
jf_element 35 wrote on July 10 2005, 12:00 am

VERSE
E|----------------------------------------
B|----------------------------------------
G|----------------------------------------
D|-----7---6-6-6/7-X2---0-0-7---6-6-6/7-X2
A|-0-0------------------------------------
E|----------------------------------------

guest
You may want to rate the tab now too:
select rating
Please do not post tabs as comments. Select "correction" instead!