Oops, an error
Loading. Please wait.

What The World Will Never Take Bass Tab

version 2
version 2

Whole song

Interactive

2,940 views 1 this week
no commentswrite comment
1 2 3 4 5
please rate
add to favorites
launch autoscroll
font size
0
reset
guitar tuner
Autoscroll
slow
fast
+/-
esc
set tempo
stop
Help us to improve Ultimate-Guitar.com Take our survey!
×
Author
Ok wat up me and my band play this all the time is goes like this...


guitar intro...

1ST vERSE
G|-------------------------------------------------------------|
D|-------------------------------------------------------------|
A|-----------55----55---------------55----55-------------------|
E|55---55----------------55----55------------------------------|

PER CHORUS
G|-----------------------------------------------------------------|
D|-----------------------------------------------------------------|
A|------99------55-------------------------------------------------|
E|55--------77------55/777\5---------------------------------------|

CHORUS 1X
G|-----------------------------------------------------|
D|-----------------------------------------------------|
A|---------55/99\---55-------------9999---555----------|
E|55555555-------77\---5-55555555-------77----5--------|


SONG LAY OUT

INTRO
VERSE
PER CHORUS
CHORUS
VERSE
PER CHORUS
CHORUS 2X
BRIDGE
CHORUS 2X
ENDTRO


BRIDGE DRUMS TAP THEN YOU COME IN WITH THIS O AND ITS 12 NOT 1 AND 2
G|-----------------------------------------------------------------------|
D|-----------------------------------------------------------------------|
A|12121212121212121212121212121212---------------------------------------|
E|-----------------------------------------------------------------------|
GUITAR DOES ITS THING AND THEN
G|---------------------------------------------------------------------------|
D|---------------------------------------------------------------------------|
A|9999|11|8888-----------13131313--------------------------------------------|
E|-------------5555-7777-----------------------------------------------------|
BACK TO CHORUS
Suggest correction
Give kudos to tab author, rate the tab!
1 2 3 4 5
comments
print report bad tab
guest
You may want to rate the tab now too:
select rating
Please do not post tabs as comments. Select "correction" instead!