Oops, an error
Loading. Please wait.

What The World Will Never Take Tab

version 2
version 2

Whole song

Interactive

234 views 1 this week
no commentswrite comment
1 2 3 4 5
please rate
add to favorites
launch autoscroll
font size
0
reset
how to read this tab
guitar tuner
Autoscroll
slow
fast
+/-
esc
set tempo
stop
Help us to improve Ultimate-Guitar.com Take our survey!
×
Author
Difficulty
novice
INTRO
|--------------------------------------------------------------|
|--------------------------------------------------------------|
|--------------------------------------------------------------| X4
|------7-6-6-6h7------7-6-6-6h7------7-6-6-6h7------7-6-6-6h7--|
|--------------------------------5-5------------5-5------------|
|--5-5------------5-5------------------------------------------|

|----------------------------------|
|----------------------------------|
|--6-6-4h6--6-4h6--6-4h6--6b7-4----| X2
|-------------------------------7--|
|----------------------------------|
|----------------------------------|

CHORUS
|-------------------------------------------------------------------|
|-------------------------------------------------------------------|
|----------------------------------7-7-7-7---------4-4-4-4-7-7-7-7--|
|--7-7-7-7-7-7-7-7-7-7-7-7-7-7-7-7-7-7-7-7-4-4-4-4-4-4-4-4-7-7-7-7--|
|--7-7-7-7-7-7-7-7-7-7-7-7-7-7-7-7-5-5-5-5-4-4-4-4-2-2-2-2-5-5-5-7--|
|--5-5-5-5-5-5-5-5-5-5-5-5-5-5-5-5---------2-2-2-2------------------|

|------------------------------------------------------------|
|------------------------------------------------------------|
|----------------------------------------------------7-7-7-7-|
|--7-7-7-7-7-7-7-7-7-7-7-7-7-7-7-7-4--4--4--4--9--9--7-7-7-7-|
|--7-7-7-7-7-7-7-7-7-7-7-7-7-7-7-7-4--4--4--4--9--9--5-5-5-5-|
|--5-5-5-5-5-5-5-5-5-5-5-5-5-5-5-5-2--2--2--2--7--7----------|

INTRO
|--------------------------------------------------------------|
|--------------------------------------------------------------|
|--------------------------------------------------------------| X2
|------7-6-6-6h7------7-6-6-6h7------7-6-6-6h7------7-6-6-6h7--|
|--------------------------------5-5------------5-5------------|
|--5-5------------5-5------------------------------------------|

|----------------------------------|
|----------------------------------|
|--6-6-4h6--6-4h6--6-4h6--6b7-4----| X2
|-------------------------------7--|
|----------------------------------|
|----------------------------------|

CHORUS
|-------------------------------------------------------------------|
|-------------------------------------------------------------------| 
|----------------------------------7-7-7-7---------4-4-4-4-7-7-7-7--|
|--7-7-7-7-7-7-7-7-7-7-7-7-7-7-7-7-7-7-7-7-4-4-4-4-4-4-4-4-7-7-7-7--|
|--7-7-7-7-7-7-7-7-7-7-7-7-7-7-7-7-5-5-5-5-4-4-4-4-2-2-2-2-5-5-5-7--|
|--5-5-5-5-5-5-5-5-5-5-5-5-5-5-5-5---------2-2-2-2------------------|
                                                                      X2
|------------------------------------------------------------|
|------------------------------------------------------------|
|----------------------------------------------------7-7-7-7-|
|--7-7-7-7-7-7-7-7-7-7-7-7-7-7-7-7-4--4--4--4--9--9--7-7-7-7-|
|--7-7-7-7-7-7-7-7-7-7-7-7-7-7-7-7-4--4--4--4--9--9--5-5-5-5-|
|--5-5-5-5-5-5-5-5-5-5-5-5-5-5-5-5-2--2--2--2--7--7----------|

SOLO
|-----------------------------------------------------------------------------|
|--------10-------10----10-------10-12b13--10---------------------------------|
|--11-11----11-11----11----10-10------------------6-----6---6-----8-----8---8-| X2
|---------------------------------------------7-7---7-7---7---9-9---9-9---9---|
|-----------------------------------------------------------------------------|
|-----------------------------------------------------------------------------|

|--------------------------------------------------|
|--------------------------------------------------|
|------8-----8---8-----8-----8---8-----8-----8---8-|
|--9-9---9-9---9---9-9---9-9---9---9-9---9-9---9---|
|--------------------------------------------------|
|--------------------------------------------------|

CHORUS
|-------------------------------------------------------------------|
|-------------------------------------------------------------------| 
|----------------------------------7-7-7-7---------4-4-4-4-7-7-7-7--|
|--7-7-7-7-7-7-7-7-7-7-7-7-7-7-7-7-7-7-7-7-4-4-4-4-4-4-4-4-7-7-7-7--|
|--7-7-7-7-7-7-7-7-7-7-7-7-7-7-7-7-5-5-5-5-4-4-4-4-2-2-2-2-5-5-5-7--|
|--5-5-5-5-5-5-5-5-5-5-5-5-5-5-5-5---------2-2-2-2------------------|
                                                                      X2
|------------------------------------------------------------|
|------------------------------------------------------------|
|----------------------------------------------------7-7-7-7-|
|--7-7-7-7-7-7-7-7-7-7-7-7-7-7-7-7-4--4--4--4--9--9--7-7-7-7-|
|--7-7-7-7-7-7-7-7-7-7-7-7-7-7-7-7-4--4--4--4--9--9--5-5-5-5-|
|--5-5-5-5-5-5-5-5-5-5-5-5-5-5-5-5-2--2--2--2--7--7----------|

ENDING
|------------------------------------------|
|------------------------------------------|
|--------------------------------7-7-7-7---| X2
|--7-x-x-x-7-x-x-x-x-x-x-x-7-x-7-7-7-7-7-7-|
|--7-x-x-x-7-x-x-x-x-x-x-x-7-x-7-5-5-5-5-7-|
|--5-x-x-x-5-x-x-x-x-x-x-x-5-x-5---------5-|

IF YOU HAVE ANY QUESTIONS OR CORRECTIONS SEND THEM TO ME AT BVALON@HOTMAIL.COM
Suggest correction
What's this?
You can suggest a correction to this tab. Community and Mods will review your correction and vote to approve or reject it.
comments
We did not receive enough feedback on this tab! Please rate:
print report bad tab
1 2 3 4 5
guest
You may want to rate the tab now too:
select rating
Please do not post tabs as comments. Select "correction" instead!