Oops, an error
Loading. Please wait.

Faded In The Morning bass

version 1
version 1

Whole song

Interactive

806 views 3 this week
1 commentread comment
1 2 3 4 5
x 3
add to favorites
×
Save as Personal and add changes to this tab that will be seen only by you. Learn more ›
×
You can save this tab as Personal to edit and correct it or add notes. All changes will be seen only by you. Learn more »
launch autoscroll
font size
0
reset
guitar tuner
edit
Autoscroll
slow
fast
+/-
esc
set tempo
stop
Author
-------------------------------------------------------------------------------
                             Faded in the Morning - Unknown Mortal Orchestra
-------------------------------------------------------------------------------
Tabbed by: tim_impala
E-mail: 

Tuning:Standard tuning

Main riff:

G|--------||------------------|-----------------|------------------|-----------------||
D|--------||------/6---4------|------/6---4-----|-------/6---4-----|-----------------||
A|--------||---------------/4-|--2--------------|--------------4-2-|-----------------||
E|------2-||-4-4--------------|-------------0-2-|-4-4--------------|-2-2---0---0---2-||   

Verses:

Words are floating...
G|-----------------|-----------------|------------------|-----------------|-----------------|
D|-----------------|-----------------|------------------|-----------------|-----------------|
A|-----------------|-----------------|------------------|-----------------|-----------------|
E|-4-4---4-4-4---4-|-2-2---2-2-2---2-|-2-2---2-2-2----2-|-0-0---0-0-0---0-|-0-0---0-0-0---0-|

Faded in the morning time...
G|-----------------|-----------------|
D|-6-6---8-----8---|-----------------|
A|-----6-----8-----|-----------------|
E|---------6-----7-|-----7------/9---|




| /  slide up
| \  slide down
| h  hammer-on
| p  pull-off
| ~  vibrato
| +  harmonic
| x  Mute note
===============================================================================
Suggest correction
Creating personal tab
Creating personal tab
You can edit any tab online and save it as your Personal.

You can edit, replace or remove any tab part or add personal notes – all changes will be seen only by you.

Personal tabs can be accessed anytime from any device, even offline.
Learn more »
Give kudos to tab author, rate the tab!
1 2 3 4 5
comments
print report bad tab
1 comment total.
0 reply
ASAPROACH 166 Jul 21, 2015 06:29 PM

all of your UMO tabs are amazing

guest
You may want to rate the tab now too:
select rating
Wanna post a correction for this tab? Suggest correction