Oops, an error
Loading. Please wait.

Ffunny Ffrends Tab

version 1
version 1

Whole song

Interactive

15,309 views 96 this week
1 commentread comment
1 2 3 4 5
excellent!
x 9
add to favorites
launch autoscroll
font size
0
reset
how to read this tab
guitar tuner
Tab Pro tools
  • play this tab
  • loop segment
  • change instrument
  • show fretboard
  • metronome
×
Best way to learn
"Ffunny Ffrends"
Autoscroll
slow
fast
+/-
esc
set tempo
stop
Contributor
Difficulty
intermediate
                   Unknown Mortal Orchestra - Ffunny Ffrends
                       from their 2011 self-titled album

Intro:
e|------------------------------------------------------------------------|
B|-9----9----9--11------9----9--11------9---11---4----4-6-2~~~~~~~-2-2--4-|
G|-------------------8---------------8------------------------------------|
D|------------------------------------------------------------------------|
A|------------------------------------------------------------------------|
E|-7----7----7---7---7--7----7---7---7--7----7---2----2-2-2---------------|

e|-----------------------------------------------------------------|
B|-9----9----9--11------9----9--11------9---11---4----4-6-2~~~~~~~-|
G|-------------------8---------------8-----------------------------|
D|-----------------------------------------------------------------|
A|-----------------------------------------------------------------|
E|-7----7----7---7---7--7----7---7---7--7----7---2----2-2-2--------|


Verse:
"Don't you feel bad if we try to be right"
e|-4--------9--------4--------9--------|
B|-2--------7--------2--------7--------|
G|-3--------8--------3--------8--------|
D|-------------------------------------|
A|-------------------------------------|
E|-2--------7--------2--------7--------|

"Well love is much more than good advice"
e|-4--------6--------7-----------------|
B|-4--------6--------9-----------------|
G|-4--------6--------8-----------------|
D|-------------------------------------|
A|-------------------------------------|
E|-4--------6--------7-----------------|


Chorus:
"I would like all of my life, all of my life, all my funny friends"
e|------------------------------------------------------------------------|
B|-9----9----9--11------9----9--11------9---11---4----4-6-2~~~~~~~-2-2--4-|
G|-------------------8---------------8------------------------------------|
D|------------------------------------------------------------------------|
A|------------------------------------------------------------------------|
E|-7----7----7---7---7--7----7---7---7--7----7---2----2-2-2---------------|

"I would like all of my life, all of my life, all my funny friends"
e|-----------------------------------------------------------------|
B|-9----9----9--11------9----9--11------9---11---4----4-6-2~~~~~~~-|
G|-------------------8---------------8-----------------------------|
D|-----------------------------------------------------------------|
A|-----------------------------------------------------------------|
E|-7----7----7---7---7--7----7---7---7--7----7---2----2-2-2--------|


Verse:
"Who gives a damn if we throw the dice?"
e|-4--------9--------4--------9--------|
B|-2--------7--------2--------7--------|
G|-3--------8--------3--------8--------|
D|-------------------------------------|
A|-------------------------------------|
E|-2--------7--------2--------7--------|

"Well love is much more than good advice"
e|-4--------6--------7-----------------|
B|-4--------6--------9-----------------|
G|-4--------6--------8-----------------|
D|-------------------------------------|
A|-------------------------------------|
E|-4--------6--------7-----------------|


Chorus:
"I would like all of my life, all of my life, all my funny friends"
e|------------------------------------------------------------------------| \
B|-9----9----9--11------9----9--11------9---11---4----4-6-2~~~~~~~-2-2--4-|  \
G|-------------------8---------------8------------------------------------|   \
D|------------------------------------------------------------------------|    |
A|------------------------------------------------------------------------|    |
E|-7----7----7---7---7--7----7---7---7--7----7---2----2-2-2---------------|    |
                                                                               | x2
"I would like all of my life, all of my life, all my funny friends"            |
e|-----------------------------------------------------------------|           |
B|-9----9----9--11------9----9--11------9---11---4----4-6-2~~~~~~~-|           |
G|-------------------8---------------8-----------------------------|           |
D|-----------------------------------------------------------------|          /
A|-----------------------------------------------------------------|         /
E|-7----7----7---7---7--7----7---7---7--7----7---2----2-2-2--------|        /


Solo:
e|------------------------------------------------------------------------------|
B|------------------------------------------------------------------------------|
G|------------------------------------------------------------------------------|
D|-6h8p6\4-4\3/4----6h8p6\4-4\3/4--4--4-4-4\3-3---------------------------------|
A|----------------------------------------------6---6p4---4/6\4~~~~-------------|
E|------------------------------------------------------------------4h6---------|

The hammer-ons and pull-offs in this bit are very fast:
e|------------------------------------------------------------------------------|
B|-11------------------------------------------------------14h16p14----16p14p11-|
G|-11--15p11-11-11--15p11-11-11--15p11-11-11--11-15-15--15----------15----------|
D|-11---------------------------------------------------------------------------|
A|------------------------------------------------------------------------------|
E|------------------------------------------------------------------------------|

e|------------------------------------------------------------------------------|
B|-------11---------------------------------------------------------------------|
G|-13-11----13-11-13-11-13-/15--15p13p11-----11----13---13/15-------------------|
D|---------------------------------------13-----13---------------11/13----------|
A|------------------------------------------------------------------------------|
E|------------------------------------------------------------------------------|


Chorus:
"I would like all of my life, all of my life, all my funny friends"
e|------------------------------------------------------------------------|
B|-9----9----9--11------9----9--11------9---11---4----4-6-2~~~~~~~-2-2--4-|
G|-------------------8---------------8------------------------------------|
D|------------------------------------------------------------------------|
A|------------------------------------------------------------------------|
E|-7----7----7---7---7--7----7---7---7--7----7---2----2-2-2---------------|

Little guitar lick at the end of the first bar of chorus:
e|-19\18-16--18--16.--16/18-18--|
B|------------------------------|
G|------------------------------|
D|------------------------------|
A|------------------------------|
E|------------------------------|

"I would like all of my life, all of my life, all my funny friends"
e|-----------------------------------------------------------------|
B|-9----9----9--11------9----9--11------9---11---4----4-6-2~~~~~~~-|
G|-------------------8---------------8-----------------------------|
D|-----------------------------------------------------------------|
A|-----------------------------------------------------------------|
E|-7----7----7---7---7--7----7---7---7--7----7---2----2-2-2--------|


Outro:
e|------------------------------------------------------------------------| \
B|-9----9----9--11------9----9--11------9---11---4----4-6-2~~~~~~~-2-2--4-|  \
G|-------------------8---------------8------------------------------------|   \
D|------------------------------------------------------------------------|    |
A|------------------------------------------------------------------------|    |
E|-7----7----7---7---7--7----7---7---7--7----7---2----2-2-2---------------|    |
                                                                               | x2
e|-----------------------------------------------------------------|           |
B|-9----9----9--11------9----9--11------9---11---4----4-6-2~~~~~~~-|           |
G|-------------------8---------------8-----------------------------|           |
D|-----------------------------------------------------------------|          /
A|-----------------------------------------------------------------|         /
E|-7----7----7---7---7--7----7---7---7--7----7---2----2-2-2--------|        /

Fade out.


************************************

| /   slide up
| \   slide down
| h   hammer-on
| p   pull-off
| ~   vibrato
| +   harmonic
| x   Mute note
| .   staccato
| b   Bend
| pb  Pre-bend
| br  Bend release
| pbr Pre-bend release
| brb Bend release bend

************************************
comments
print report bad tab
1 comment total.
0 reply
kentrock1 wrote on August 12 2013, 11:37 pm

Thanks a lot for tabbing this. I'm glad I came up with the same intro.

I want to post or [tab]
guest
You may want to rate the tab now too:
select rating
Please do not post tabs as comments. Select "correction" instead!