Oops, an error
Loading. Please wait.
We have an official Ffunny Ffrends tab made by UG professional guitarists. Check out the tab »
×

Ffunny Ffrends tab

version 2
version 2

Whole song

  • Based off the other version with some corrections.... Show more

Interactive

181 views 1 this week
no commentswrite comment
1 2 3 4 5
3 more votes to show rating
add to favorites
×
Save as Personal and add changes to this tab that will be seen only by you. Learn more ›
×
You can save this tab as Personal to edit and correct it or add notes. All changes will be seen only by you. Learn more »
launch autoscroll
font size
0
reset
how to read this tab
guitar tuner
edit
Autoscroll
slow
fast
+/-
esc
set tempo
stop
About this tab version
Based off the other version with some corrections.This is the way Ruban Nielson plays it live(not sure about the album), no pick just fingers. Was this info helpful? Yes No
Unknown Mortal Orchestra - Ffunny Ffrends
                       from their 2011 self-titled album

Half-Step Down Tuning: Eb‐Ab‐Db‐Gb‐Bb‐Eb (or D#-G#-C#-F#-A#-D#)

[Intro]
e|---------------------------------------------------------------------------|
B|-10---10---10--12------10---10--12------10---12---5----5-7-3~~~~~~~-3-3--5-|
G|-------------------9----------------9--------------------------------------|
D|---------------------------------------------------------------------------|
A|---------------------------------------------------------------------------|
E|-8----8----8---8---8---8----8---8---8---8----8----3----3-3-3---------------|

e|--------------------------------------------------------------------|
B|-10---10---10--12------10---10--12------10---12---5----5-7-3~~~~~~~-|
G|-------------------9----------------9-------------------------------|
D|--------------------------------------------------------------------|
A|--------------------------------------------------------------------|
E|-8----8----8---8---8---8----8---8---8---8----8----3----3-3-3--------|

[Verse]
"Don’t be surprised if we try to be wise"
e|-5--------10-------5--------10-------|
B|-3--------8--------3--------8--------|
G|-4--------9--------4--------9--------|
D|-------------------------------------|
A|-------------------------------------|
E|-3--------8--------3--------8--------|

"Well, love is much more than good advice"
e|-5--------7--------8-----------------|
B|-5--------7--------11----------------|
G|-5--------7--------9-----------------|
D|-------------------------------------|
A|-------------------------------------|
E|-5--------7--------8-----------------|

[Chorus]
"Ooh, I rely all of my life, all of my life, on my funny friends"
e|---------------------------------------------------------------------------|
B|-10---10---10--12------10---10--12------10---12---5----5-7-3~~~~~~~-3-3--5-|
G|-------------------9----------------9--------------------------------------|
D|---------------------------------------------------------------------------|
A|---------------------------------------------------------------------------|
E|-8----8----8---8---8---8----8---8---8---8----8----3----3-3-3---------------|
"Oh,I rely all of my life, all of my life, on my funny friends"
e|--------------------------------------------------------------------|
B|-10---10---10--12------10---10--12------10---12---5----5-7-3~~~~~~~-|
G|-------------------9----------------9-------------------------------|
D|--------------------------------------------------------------------|
A|--------------------------------------------------------------------|
E|-8----8----8---8---8---8----8---8---8---8----8----3----3-3-3--------|

[Verse]
"Who gives a damn if we throw the dice?"
e|-5--------10-------5--------10--------|
B|-3--------8--------3--------8--------|
G|-4--------9--------4--------9--------|
D|-------------------------------------|
A|-------------------------------------|
E|-3--------8--------3--------8--------|

"Well, love is much more than good advice"
e|-5--------7--------8-----------------|
B|-5--------7--------10----------------|
G|-5--------7--------9-----------------|
D|-------------------------------------|
A|-------------------------------------|
E|-5--------7--------8-----------------|

[Chorus]
"Ooh,I rely all of my life, all of my life, on my funny friends"
e|---------------------------------------------------------------------|    \  
B|-10--10--10--12-----10--19--12-----10--12---5----5-7-3~~~~~~~-3-3--5-|     \  
G|-----------------9--------------9------------------------------------|      \
D|---------------------------------------------------------------------|       \
A|---------------------------------------------------------------------|        \
E|-8---8---8---8---8--8---8---8---8--8---8----3----3-3-3---------------|         |
                                                                                 | x2
"Oh,I rely all of my life, all of my life, on my funny friends"              |
e|-----------------------------------------------------------------|            /
B|-9----9----9--11------9----9--11------9---11---4----5-7-3~~~~~~~-|           /
G|-------------------8---------------8-----------------------------|          /
D|-----------------------------------------------------------------|         /
A|-----------------------------------------------------------------|        /
E|-8----8----8---8---8--8----8---8---8--8----8---3----3-3-3--------|       /


[Solo]
e|-------------------------------------------------------------------------|
B|-------------------------------------------------------------------------|
G|-2h4p2\-----------2h4p2--------------------------------------------------|
D|-------5-5\4\5---------\5-5\4/5--5--5-5-5\4-4----------------------------|
A|----------------------------------------------7---7p5---5\7\5~~~~--------|
E|-------------------------------------------------------------------5h7---|

The hammer-ons and pull-offs in this bit are very fast:
e|------------------------------------------------------------------------------|
B|-12------------------------------------------------------15h17p15----17p15p12-|
G|-12--16p12-12-12--16p12-12-12--16p12-12-12--12-16-16--16----------16----------|
D|-12---------------------------------------------------------------------------|
A|------------------------------------------------------------------------------|
E|------------------------------------------------------------------------------|

e|------------------------------------------------------------------------------|
B|-------12---------------------------------------------------------------------|
G|-14-12----14-12-14-12-14-/16--16p14p12-----12----14---14/16-------------------|
D|---------------------------------------14-----14---------------12/14----------|
A|------------------------------------------------------------------------------|
E|------------------------------------------------------------------------------|

[Chorus]
"I rely all of my life, all of my life, on my funny friends"
e|---------------------------------------------------------------------------|
B|-10---10---10--12------10---10--12------10---12---5----5-7-3~~~~~~~-3-3--5-|
G|-------------------9----------------9--------------------------------------|
D|---------------------------------------------------------------------------|
A|---------------------------------------------------------------------------|
E|-8----8----8---8---8---8----8---8---8---8----8----3----3-3-3---------------|

Little guitar lick at the end of the first bar of chorus:
e|-20\19-17--19--17---17/19-19--|
B|------------------------------|
G|------------------------------|
D|------------------------------|
A|------------------------------|
E|------------------------------|

"Oh,I rely all of my life, all of my life, on my funny friends"
e|--------------------------------------------------------------------|
B|-10---10---10--12------10---10--12------10---12---5----5-7-3~~~~~~~-|
G|-------------------9----------------9-------------------------------|
D|--------------------------------------------------------------------|
A|--------------------------------------------------------------------|
E|-8----8----8---8---8---8----8---8---8---8----8----3----3-3-3--------|

[Outro]
e|---------------------------------------------------------------------------| \  
B|-10---10---10--12------10---10--12------10---12---5----5-7-3~~~~~~~-3-3--5-|  \  
G|-------------------9----------------9--------------------------------------|   \
D|---------------------------------------------------------------------------|    \
A|---------------------------------------------------------------------------|     \
E|-8----8----8---8---8---8----8---8---8---8----8----3----3-3-3---------------|      |
                                                                                    | x2
                                                                                    |
e|-----------------------------------------------------------------|               /
B|-9----9----9--11------9----9--11------9---11---4----5-7-3~~~~~~~-|              /
G|-------------------8---------------8-----------------------------|             /
D|-----------------------------------------------------------------|            /
A|-----------------------------------------------------------------|           /
E|-8----8----8---8---8--8----8---8---8--8----8---3----3-3-3--------|          /



************************************

| ~  Vibrato
| h  Hammer-on
| p  Pull-off
| \  Slide down
| /  Slide up
 

************************************

            
            
Suggest correction
Creating personal tab
Creating personal tab
You can edit any tab online and save it as your Personal.

You can edit, replace or remove any tab part or add personal notes – all changes will be seen only by you.

Personal tabs can be accessed anytime from any device, even offline.
Learn more »
Give kudos to tab author, rate the tab!
1 2 3 4 5
comments
print report bad tab
guest
You may want to rate the tab now too:
select rating
Wanna post a correction for this tab? Suggest correction