Oops, an error
Loading. Please wait.

Jello And Juggernauts Tab

9,579 views 48 this week
5 commentsread comments
1 2 3 4 5
x 19
add to favorites
×
Save as Personal and add changes to this tab that will be seen only by you. Learn more ›
×
You can save this tab as Personal to edit and correct it or add notes. All changes will be seen only by you. Learn more »
save as personal
new!
launch autoscroll
font size
0
reset
how to read this tab
guitar tuner
Autoscroll
slow
fast
+/-
esc
set tempo
stop
Author
Difficulty
Tuning
intermediate
D# G# C# F# A# D#
-------------------------------------------------------------------------------
                Unknown Mortal Orchestra - Jello and Juggernauts    
-------------------------------------------------------------------------------
Tabbed by: Tim van Kester
E-mail: timvankester@gmail.com  

Tuning: 1/2 step down

Fun song. These are basically all parts.

[Intro]

D#|-------------------|---------------------|-------------------------------------|
A#|-7---9---7t9-6--7--|-12------------9-----|-----7---------1~-----2~-----9~------|
F#|-------------------|-----11--9--11----9--|--8-----9--8-------------------------|
C#|-------------------|---------------------|-------------------------------------|
G#|-------------------|---------------------|-------------------------------------|
D#|-7---7---7---6--7--|-11--11--9--9--9--9--|--7--7--7--7---2~-----2~-----9~------|

D#|-----------------------|---------------------|-------------------------------|
A#|-------------------7~--|-----------------5~--|-4h5p4\2-----------------------|
F#|-8h9p8-----------------|-6h8p6---------------|---------4-3-4---4~---3-4------|
C#|-------11-9-8----------|-------9-8-6---------|-------------------------------|
G#|--------------11-------|-------------9-------|-------------------------------|
D#|-------------------7~--|-----------------3~--|-----------------2~------------|

D#|------------------------------|--------------------|-------------------------|
A#|-2t4--------5/7-----------5~--|-5/7--5-4-5-----4~--|-4/5-4-3-4---------------|
F#|------4---------8-------------|------------6-------|-------------4--4---3-4--|
C#|--------5---------9-7-6-------|--------------------|-------------------------|
G#|------------------------------|--------------------|-------------------------|
D#|--------------------------4~--|----------------2~--|----------------3--------|

D#|-------------------|
A#|-4---5-------------|
F#|---5---6--7~---8~--|
C#|-------------------|
G#|-------------------|
D#|----------7~---7~--|

[Verse]

D#|-9---7-------5---9---7---5---------|
A#|-7---5---4---3---7---5---3---4--6--|
F#|-8---6---4---4---8---6---4---4--6--|
C#|--------------------------------6--|
G#|--------------------------------4--|
D#|-7---5---4---3---7---5---3---4-----|

 
[Chorus]

D#|-7---4-----------4-----------------7~--|-7---4-------4--------------------9~|
A#|---------7---4-------7--4--7--2/4--5~--|---------7-7-----2/4--------------7~|
F#|-----------------------------------6~--|----------------------6--4--6-----8~|
C#|---------------------------------------|-------------------------------6----|
G#|---------------------------------------|------------------------------------|
D#|-----------------------------------5~--|----------------------------------7~|

************************************

| h  Hammer-on
| ~  Ring out note/chord
| p  Pull-off
| \  Slide down
| t  Trill (essentially a sequence of fast hammer on and pull-off's)
| /  Slide up

************************************
Suggest correction
comments
print report bad tab
5 comments total. Showing first comments.
0 reply
wizington 31 Mar 24, 2013 09:34 PM

bang on. thanks for doing all these tabs of theirs.

0 reply
SchteezeMeyers 10 Apr 05, 2013 07:23 PM

question: what is the 2t4 at the beginning of the third row? anybody feel free to answer. thanks.

0 reply
Xnimez 976 Apr 06, 2013 01:10 AM

Sorry for not explaining in the tab. It is a trill. Wikipedia explains it as 'a musical ornament consisting of a rapid alternation between two adjacent notes'. So just some quick hammer on/pulloffs on those two frets.

guest
You may want to rate the tab now too:
select rating
Wanna post a correction for this tab? Suggest correction