Oops, an error
Loading. Please wait.

So Good At Being In Trouble Tab

version 1
version 1

Whole song

33,874 views 126 this week
1 commentread comment
1 2 3 4 5
x 19
add to favorites
×
Save as Personal and add changes to this tab that will be seen only by you. Learn more ›
×
You can save this tab as Personal to edit and correct it or add notes. All changes will be seen only by you. Learn more »
save as personal
new!
launch autoscroll
font size
0
reset
how to read this tab
guitar tuner
Autoscroll
slow
fast
+/-
esc
set tempo
stop
Author
Tuning
D# G# C# F# A# D#
-------------------------------------------------------------------------------
           Unknown Mortal Orchestra - So Good At Being In Trouble
-------------------------------------------------------------------------------
Tabbed by: Tim van Kester
E-mail:

Tuning: 1/2 step down

Edit: I must say, I've seen several performances and not all are in the
same key. Therefore, the key in this tab may be a bit different to the version you want 
to play along to.

[Intro]
e|---------------------------|
B|---------------------------|
G|---------------------------|
D|-3h5---3-------------------|
A|----------3h5--3-----3h5---|
E|------------------6--------|

[Verse] These are basically all chords used. Some are repeated two or three
times, some are plucked in some order. Give it your own flavour.
e|-----------------------6-----6---8---10-----------|
B|-8---------------------6-----4---6---8---11---11--|
G|-8----------------8----7-----5---7---8---10---12--|
D|-8-----8--10-12---8----8-----------------10---12--|
A|-6---------------------8--------------------------|
E|-------6--8--10---8----6-----4---6---8---10---11--|

[Intro and verse] repeated once, then
e|-----------------------------------2---------------------------------------|
B|-------------------------6----4----2----10---------------------------------|
G|-------------------------6----5----3----10---------------------------------|
D|-3h5---3-----------------6----6----4----10---------------------------------|
A|----------3h5--3-----3---4----6----4----8----------------------------------|
E|------------------6-----------4----2---------------------------------------|

[Chorus] (During 'She was', still play last chord of previous bar)
e|-11----8----2--6------------11---9----8------------------------------------|
B|-9-----6----2--4------------9----7----6---6--------------------------------|
G|-10----6----3--5----(x3)----10---8----6---7--------------------------------|
D|------------4-----------------------------6--------------------------------|
A|------------4--------------------------------------------------------------|
E|-9-----6----2--4------------9----7----6---6--------------------------------|

And then he repeats everything a couple of times.

************************************

| h  Hammer-on

************************************
Suggest correction
comments
print report bad tab
1 comment total.
+1 reply
lukblo 10 Jun 12, 2017 02:32 PM

Same version by Tim van Kester on Standard Tuning:

[Intro]
e|---------------------------|
B|---------------------------|
G|---------------------------|
D|-2h4---2-------------------|
A|----------2h4--2-----2h4---|
E|------------------5--------|

[Verse] These are basically all chords used. Some are repeated two or three
times, some are plucked in some order. Give it your own flavour.
e|-----------------------5-----5---7---9------------|
B|-7---------------------5-----3---5---7---10---10--|
G|-7----------------7----6-----4---6---7----9---11--|
D|-7-----7--9--11---7----7------------------9---11--|
A|-5---------------------7--------------------------|
E|-------5--7---9---7----5-----3---4---7----9---10--|

[Intro and verse] repeated once, then
e|-----------------------------------1---------------------------------------|
B|-------------------------5----3----1----9----------------------------------|
G|-------------------------5----4----2----9----------------------------------|
D|-2h4---2-----------------5----5----3----9----------------------------------|
A|----------2h4--2-----2---3----5----3----7----------------------------------|
E|------------------5-----------3----1---------------------------------------|

[Chorus] (During 'She was', still play last chord of previous bar)
e|-10----7----1--5------------10---8----7------------------------------------|
B|-8-----5----1--3------------8----6----5---5--------------------------------|
G|-9-----5----2--4----(x3)----9----7----5---6--------------------------------|
D|------------3-----------------------------5--------------------------------|
A|------------3--------------------------------------------------------------|
E|-8-----5----1--3------------8----6----5---5--------------------------------|

And then he repeats everything a couple of times.

************************************

| h Hammer-on

guest
You may want to rate the tab now too:
select rating
Wanna post a correction for this tab? Suggest correction