Oops, an error
Loading. Please wait.

So Good At Being In Trouble Tab

version 1
version 1

Whole song

29,665 views 57 this week
no commentswrite comment
1 2 3 4 5
x 18
add to favorites
launch autoscroll
font size
0
reset
how to read this tab
guitar tuner
Autoscroll
slow
fast
+/-
esc
set tempo
stop
Help us to improve Ultimate-Guitar.com Take our survey!
×
Author
Tuning
D# G# C# F# A# D#
-------------------------------------------------------------------------------
           Unknown Mortal Orchestra - So Good At Being In Trouble
-------------------------------------------------------------------------------
Tabbed by: Tim van Kester
E-mail:

Tuning: 1/2 step down

Edit: I must say, I've seen several performances and not all are in the
same key. Therefore, the key in this tab may be a bit different to the version you want 
to play along to.

[Intro]
e|---------------------------|
B|---------------------------|
G|---------------------------|
D|-3h5---3-------------------|
A|----------3h5--3-----3h5---|
E|------------------6--------|

[Verse] These are basically all chords used. Some are repeated two or three
times, some are plucked in some order. Give it your own flavour.
e|-----------------------6-----6---8---10-----------|
B|-8---------------------6-----4---6---8---11---11--|
G|-8----------------8----7-----5---7---8---10---12--|
D|-8-----8--10-12---8----8-----------------10---12--|
A|-6---------------------8--------------------------|
E|-------6--8--10---8----6-----4---6---8---10---11--|

[Intro and verse] repeated once, then
e|-----------------------------------2---------------------------------------|
B|-------------------------6----4----2----10---------------------------------|
G|-------------------------6----5----3----10---------------------------------|
D|-3h5---3-----------------6----6----4----10---------------------------------|
A|----------3h5--3-----3---4----6----4----8----------------------------------|
E|------------------6-----------4----2---------------------------------------|

[Chorus] (During 'She was', still play last chord of previous bar)
e|-11----8----2--6------------11---9----8------------------------------------|
B|-9-----6----2--4------------9----7----6---6--------------------------------|
G|-10----6----3--5----(x3)----10---8----6---7--------------------------------|
D|------------4-----------------------------6--------------------------------|
A|------------4--------------------------------------------------------------|
E|-9-----6----2--4------------9----7----6---6--------------------------------|

And then he repeats everything a couple of times.

************************************

| h  Hammer-on

************************************
Suggest correction
comments
print report bad tab
guest
You may want to rate the tab now too:
select rating
Wanna post a correction for this tab? Suggest correction