Oops, an error
Loading. Please wait.
We have an official Swim And Sleep Like A Shark tab made by UG professional guitarists. Check out the tab »
×
157 views 6 this week
no commentswrite comment
1 2 3 4 5
3 more votes to show rating
add to favorites
×
Save as Personal and add changes to this tab that will be seen only by you. Learn more ›
×
You can save this tab as Personal to edit and correct it or add notes. All changes will be seen only by you. Learn more »
launch autoscroll
font size
0
reset
guitar tuner
edit
Autoscroll
slow
fast
+/-
esc
set tempo
stop
Author
Difficulty
---------------------------------------------------------------------------------------
                            Swim and Sleep (like a shark) - Unknown Mortal Orchestra
---------------------------------------------------------------------------------------

Tabbed by: babina
E-mail: bambinainnero@gmail.com

This tab is based on the studio version of the song.

[Intro] 
G|-----------------------------------------------------------------|
D|-----13-------13-13--------13----11--------10-10-----------------|
A|----------13------------13------------------------10-------------|
E|-11------------------------------------9-----------------8-------|

G|------10------10-10-------10------12------12---------------------|
D|----------10-----------10----------------------12----------------|
A|---8---------------------------------------------------10--------|
E|-----------------------------------------------------------------|

[Verse] 
    I wish that I could swim and sleep... 
G|-----------------------------------------------------------------|
D|-----------------------------------------------13--13------------|
A|--15-----------13------11-------------------13-------------------|
E|---------------------------------11------------------------------|

    I'd fall to the bottom...
G|-----------------------------------------------------------------|
D|-----------------------------------------------------------------|
A|---------------11-13---------------------------------------------|
E|------13---------------------------------------------------------|

   ...and I'd hide 'til the end of time...
G|----------------------------------------------------------------|
D|--------------------------------------------13--13--------------|
A|--15-15----------13------11--------------13---------------------|
E|--------------------------------11------------------------------|

    In that sweet cool darkness...
G|---------------------------------------------------------------|
D|------------------------------------13--13---------------------|
A|----------15----13---11----------13----------------------------|
E|---------------------------11----------------------------------|
  
   Asleep and constantly floating away
G|----------------------------------------------------------|
D|------------------------------------------13-13-----------|
A|--13-------11--------------------------13-----------------|
E|--------------------------------11------------------------|

[Instrumental]
G|-----------------------------------------------------------------|
D|-----13-------13-13--------13----11--------10-10-----------------|
A|----------13------------13------------------------10-------------|
E|-11------------------------------------9-----------------8-------|

G|------10------10-10-------10------12------12---------------------|
D|----------10-----------10----------------------12----------------|
A|---8---------------------------------------------------10--------|
E|-----------------------------------------------------------------|

[Verse] 
    I wish that I could break and bend like the world does
G|-----------------------------------------------------------------------|
D|------------------------------------------------------13-13------------|
A|--15-----------13------11-------------------------13-------------------|
E|---------------------------------11------------------------------------|

    I'd fall to the bottom...
G|-----------------------------------------------------------------|
D|-----------------------------------------------------------------|
A|---------------11-13---------------------------------------------|
E|------13---------------------------------------------------------|

   ...and I'd chase all my dreams away...
G|----------------------------------------------------------------|
D|--------------------------------------------13--13--------------|
A|--15-15----------13------11--------------13---------------------|
E|--------------------------------11------------------------------|

    And I'd let you crush me...
G|---------------------------------------------------------------|
D|------------------------------------13--13---------------------|
A|----------15----13---11----------13----------------------------|
E|---------------------------11----------------------------------|
  
   My dreams would be constantly wilting away
G|----------------------------------------------------------------|
D|--------------------------------------------------13-13---------|
A|---13---------------11--------------------------13--------------|
E|---------------------------------------11-----------------------|

[Instrumental]
G|-----------------------------------------------------------------|
D|-----13-------13-13--------13----11--------10-10-----------------|
A|----------13------------13------------------------10-------------|
E|-11------------------------------------9-----------------8-------|

G|------10------10-10-------10------12------12---------------------|
D|----------10-----------10----------------------12----------------|
A|---8---------------------------------------------------10--------|
E|-----------------------------------------------------------------|

[Outro] 
G|-------17---------17------------15----------15-----------13--------13------------------|
D|---------------------------------------------------------------------------------------|
A|--15------15-15------15-----13--------13-13----13----11------11-11-----11--------------|
E|---------------------------------------------------------------------------------------|

G|------12-------12-----------10------10------------8-------8-----------------------10-------|
D|-------------------------------------------------------------------------------------------|
A|--10-----10-10-----10-----8-----8-8-----8-----6-----6-6------6---4----3-4-6-8---8----8--6--|
E|-------------------------------------------------------------------------------------------|

[Verse] 
    I wish that I could swim and sleep... 
G|-----------------------------------------------------------------|
D|-----------------------------------------------13--13------------|
A|--15-----------13------11-------------------13-------------------|
E|---------------------------------11------------------------------|

    I'd fall to the bottom...
G|-----------------------------------------------------------------|
D|-----------------------------------------------------------------|
A|---------------11-13---------------------------------------------|
E|------13---------------------------------------------------------|

   ...and I'd hide 'til the end of time...
G|----------------------------------------------------------------|
D|--------------------------------------------13--13--------------|
A|--15-15----------13------11--------------13---------------------|
E|--------------------------------11------------------------------|

    In that sweet cool darkness...
G|---------------------------------------------------------------|
D|------------------------------------13--13---------------------|
A|----------15----13---11----------13----------------------------|
E|---------------------------11----------------------------------|
  
   Asleep and constantly floating away
G|----------------------------------------------------------|
D|------------------------------------------13-13-----------|
A|--13-------11--------------------------13-----------------|
E|--------------------------------11------------------------|

[Instrumental]
G|-----------------------------------------------------------------|
D|-----13-------13-13--------13----11--------10-10-----------------|
A|----------13------------13------------------------10-------------|
E|-11------------------------------------9-----------------8-------|

G|------10------10-10-------10------12------12---------------------|
D|----------10-----------10----------------------12----------------|
A|---8---------------------------------------------------10--------|
E|-----------------------------------------------------------------|

[Outro] 
G|-------17---------17------------15----------15-----------13--------13------------------|
D|---------------------------------------------------------------------------------------|
A|--15------15-15------15-----13--------13-13----13----11------11-11-----11--------------|
E|---------------------------------------------------------------------------------------|

G|------12-------12-----------10------10------------8-------8-----------------------10-------|
D|-------------------------------------------------------------------------------------------|
A|--10-----10-10-----10-----8-----8-8-----8-----6-----6-6------6---4----3-4-6-8---8----8--6--|
E|-------------------------------------------------------------------------------------------|

            
            
Suggest correction
Creating personal tab
Creating personal tab
You can edit any tab online and save it as your Personal.

You can edit, replace or remove any tab part or add personal notes – all changes will be seen only by you.

Personal tabs can be accessed anytime from any device, even offline.
Learn more »
Give kudos to tab author, rate the tab!
1 2 3 4 5
comments
print report bad tab
guest
You may want to rate the tab now too:
select rating
Wanna post a correction for this tab? Suggest correction