Oops, an error
Loading. Please wait.

Dawn Of Ages Tab

79 views 12 this week
no commentswrite comment
1 2 3 4 5
1 last vote to show rating
add to favorites
launch autoscroll
font size
0
reset
how to read this tab
guitar tuner
Autoscroll
slow
fast
+/-
esc
set tempo
stop
Help us to improve Ultimate-Guitar.com Take our survey!
×
Author
Difficulty
Tuning
intermediate
D A D G B E
Unleash The Archers-Dawn Of Ages
0:00-Intro Tapping

0:20[Intro Lead]
   t       t    t       t       t       t          t          t          t
e|----------------------------------------------------------------------------------|
B|----------------------------------------------------------------------------------|
G|-19-7-10-23-7-22-7-10-21-7-10-19-7-10---------------------------------------------|
D|--------------------------------------20-11-8-11-20-11-8-11-20-11-8-11-20-11-8-11-|
A|----------------------------------------------------------------------------------|
D|----------------------------------------------------------------------------------|

   t       t    t       t       t       t          t          t          t
e|----------------------------------------------------------------------------------|
B|--------------------------------------20-11-8-11-20-11-8-11-20-11-8-11-20-11-8-11-|
G|-19-7-10-23-7-22-7-10-21-7-10-19-7-10---------------------------------------------|
D|----------------------------------------------------------------------------------|
A|----------------------------------------------------------------------------------|
D|----------------------------------------------------------------------------------|

   t       t    t       t       t       t          t          t          t
e|----------------------------------------------------------------------------------|
B|----------------------------------------------------------------------------------|
G|-19-7-10-23-7-22-7-10-21-7-10-19-7-10---------------------------------------------|
D|--------------------------------------20-11-8-11-20-11-8-11-20-11-8-11-20-11-8-11-|
A|----------------------------------------------------------------------------------|
D|----------------------------------------------------------------------------------|

0:28
   t       t    t       t    t       t       t       t       t
e|-------------------------------------------------------------------|
B|-------------------------------------------------------------------|
G|-19-7-10-21-7-21-7-10-23-7-23-7-10-23-7-10-21-7-10-19-7-10-17-7-10-|
D|-------------------------------------------------------------------|
A|-------------------------------------------------------------------|
D|-------------------------------------------------------------------|

   t       t    t       t       t       t          t          t          t
e|----------------------------------------------------------------------------------|
B|----------------------------------------------------------------------------------|
G|-19-7-10-23-7-22-7-10-21-7-10-19-7-10---------------------------------------------|
D|--------------------------------------20-11-8-11-20-11-8-11-20-11-8-11-20-11-8-11-|
A|----------------------------------------------------------------------------------|
D|----------------------------------------------------------------------------------|

   t       t    t       t       t       t          t          t          t
e|----------------------------------------------------------------------------------|
B|--------------------------------------20-11-8-11-20-11-8-11-20-11-8-11-20-11-8-11-|
G|-19-7-10-22-7-23-7-10-21-7-10-19-7-10---------------------------------------------|
D|----------------------------------------------------------------------------------|
A|----------------------------------------------------------------------------------|
D|----------------------------------------------------------------------------------|

   t       t    t       t       t       t          t          t          t
e|----------------------------------------------------------------------------------|
B|----------------------------------------------------------------------------------|
G|-19-7-10-23-7-22-7-10-21-7-10-19-7-10---------------------------------------------|
D|--------------------------------------20-11-8-11-20-11-8-11-20-11-8-11-20-11-8-11-|
A|----------------------------------------------------------------------------------|
D|----------------------------------------------------------------------------------|

   t       t    t       t    t
e|--------------------------------------------------|
B|--------------------------------------------------|
G|-19-7-10-21-7-21-7-10-23-7-23-7-10-10------9~-----|
D|--------------------------------------------------|
A|--------------------------------------------------|
D|--------------------------------------------------|

0:20[Intro Rhythm]
e|----------------------------------------------------------------------|
B|----------------------------------------------------------------------|
G|----------------------------------------------------------------------|
D|-7------------0--------7------------8\-----------7------------0-------|
A|-5------5-5-5-0--------5------5-5-5-8\---0-0-0-0-5------5-5-5-0-------|
D|-5------5-5-5-0--------5------5-5-5-8\---0-0-0-0-5------5-5-5-0-------|
          * * *                 * * *      * * * *        * * *

0:28
e|-------------------------------------------------------------------|
B|-------------------------------------------------------------------|
G|-------------------------------------------------------------------|
D|-7------------9------------11-----------7------------9------11-----|
A|-7------------9------------11-----------7------------7------9------|
D|-7------------9------------11-----------7--------------------------|

e|------------------------------------------------------------------------|
B|------------------------------------------------------------------------|
G|------------------------------------------------------------------------|
D|-7------------0--------7------------8\-----------7------------0-------7-|
A|-5------5-5-5-0--------5------5-5-5-8\---0-0-0-0-5------5-5-5-0-------5-|
D|-5------5-5-5-0--------5------5-5-5-8\---0-0-0-0-5------5-5-5-0-------5-|
          * * *                 * * *      * * * *        * * *

0:42[Verse]
e|-----------------------------------------------------------------------------------------------------------|
B|-----------------------------------------------------------------------------------------------------------|
G|-7----------7------7--7--7-----------------------------3----------3------3--3--3--2------------------------|
D|-7----------7------7--7--7--7----------7------2--2--2--3----------3------3--3--3--2------------------------|
A|-5--5-5-5-5-5--5-5-5--5--5--3--3-3-3-3-3--3-3-0--0--0--1--1-1-1-1-1--1-1-1--1--1--0----------0--2--0--7--8-|
D|-----------------------------------------------------------------------------------------------------------|
      * * * *    * *             * * * *    * *             * * * *    * *                     *  *  *

e|-----------------------------------------------------------------------------------------------------------|
B|-----------------------------------------------------------------------------------------------------------|
G|----------------------------------------------5--5--5------------------------------------------------------|
D|-------------------2--2--2--3----------3------5--5--5--5----------3------3--3--3--2----------0--7--0--3--7-|
A|-0----------0------2--2--2--3----------3------3--3--3--1--1-1-1-1-1--1-1-1--1--1--0------------------------|
D|-0--0-0-0-0-0--0-0-2--2--2--3--3-3-3-3-3--3-3--------------------------------------------------------------|
      * * * *    * *             * * * *    * *             * * * *    * *                     *  *  *

e|-----------------------------------------------------------------------------------------------------------|
B|-----------------------------------------------------------------------------------------------------------|
G|-7----------7------7--7--7-----------------------------3----------3------3--3--3--2------------------------|
D|-7----------7------7--7--7--7----------7------2--2--2--3----------3------3--3--3--2------------------------|
A|-5--5-5-5-5-5--5-5-5--5--5--3--3-3-3-3-3--3-3-0--0--0--1--1-1-1-1-1--1-1-1--1--1--0----------0--2--0--7--8-|
D|-----------------------------------------------------------------------------------------------------------|
      * * * *    * *             * * * *    * *             * * * *    * *                     *  *  *

e|-----------------------------------------------------------------------------------------------------------|
B|-----------------------------------------------------------------------------------------------------------|
G|----------------------------------------------5--5--5------------------------------------------------------|
D|-------------------2--2--2--3----------3------5--5--5--5----------3------3--3--3--2----------0--7--0--3--7-|
A|-0----------0------2--2--2--3----------3------3--3--3--1--1-1-1-1-1--1-1-1--1--1--0------------------------|
D|-0--0-0-0-0-0--0-0-2--2--2--3--3-3-3-3-3--3-3--------------------------------------------------------------|
      * * * *    * *             * * * *    * *             * * * *    * *                     *  *  *

e|--------------------------------------------|
B|--------------------------------------------|
G|-3------------------------------------------|
D|-3----3--3--3--3--3--2----2----2----2--2--2-|
A|-1----1--1--1--1--1--0----0----0----0--0--0-|
D|---------------------0----0----0------------|
        *  *  *  *  *

1:06[Chorus]
e|----------8--8--8--8--8--7--7--7--7--8--8--8-------------------------------------------------------------|
B|----------10-10-10-10-10-10-10-10-10-10-10-10------------------------------------------------------------|
G|----------10-10-10-10-10-10-10-10-10-10-10-10------------------------------------------------------------|
D|-0--0--0--8--8--8--8--8--7--7--7--7--8--8--8-------------------------------10----------------------------|
A|-0--0--0--8--8--8--8--8--7--7--7--7--8--8--8--------8-10-12-----10--12-----10----10--13--10--10-13-13-13-|
D|-0--0--0--9--9--9--9--9--8--8--8--8--9--9--9--/8-------------8----------0--10----10------10--------------|
                                                               *          *        *       *

e|----------8--8--8--8--7--7--7------------------7--7--7--7--7------------------------|
B|----------10-10-10-10-10-10-10-----------------7--7--7--7--7------------------------|
G|----------10-10-10-10-10-10-10-----------7--7--7--7--7--7--7------------------------|
D|-0--0--0--8--8--8--8--7--7--7--5----7----7--7--7--7--7--7--7--3--------3----3--3--3-|
A|-0--0--0--8--8--8--8--7--7--7--5----7----7--7--7--7--7--7--7--3--3--3--3----3--3--3-|
D|-0--0--0--9--9--9--9--8--8--8--5----7----8--8--8--8--8--8--8--3--3--3--2----2--2--2-|
                                                                   *  *

e|----------8--8--8--8--8--7--7--7--7--8--8--8-------------------------------------------------------------|
B|----------10-10-10-10-10-10-10-10-10-10-10-10------------------------------------------------------------|
G|----------10-10-10-10-10-10-10-10-10-10-10-10------------------------------------------------------------|
D|-0--0--0--8--8--8--8--8--7--7--7--7--8--8--8-------------------------------10----------------------------|
A|-0--0--0--8--8--8--8--8--7--7--7--7--8--8--8--------8-10-12-----10--12-----10----10--13--10--10-13-13-13-|
D|-0--0--0--9--9--9--9--9--8--8--8--8--9--9--9--/8-------------8----------0--10----10------10--------------|
                                                               *          *        *       *

e|----------8--8--8--8--7--7--7------------------7--7--7--7--7------------------------|
B|----------10-10-10-10-10-10-10-----------------7--7--7--7--7------------------------|
G|----------10-10-10-10-10-10-10-----------7--7--7--7--7--7--7------------------------|
D|-0--0--0--8--8--8--8--7--7--7--5----7----7--7--7--7--7--7--7--3--------3----3--3--3-|
A|-0--0--0--8--8--8--8--7--7--7--5----7----7--7--7--7--7--7--7--3--3--3--3----3--3--3-|
D|-0--0--0--9--9--9--9--8--8--8--5----7----8--8--8--8--8--8--8--3--3--3--2----2--2--2-|  
                                                                   *  *

1:28[Lick]
e|------------------------------------------|
B|---------------------------------8-10-12~-|
G|-------7-------------9----7-9-10----------|
D|-7--9-----9----10-------------------------|
A|------------------------------------------|
D|------------------------------------------|
   *  *  *  *    *     *                =

1:31[Verse]
e|-----------------------------------------------------------------------------------------------------------|
B|-----------------------------------------------------------------------------------------------------------|
G|-7----------7------7--7--7-----------------------------3----------3------3--3--3--2------------------------|
D|-7----------7------7--7--7--7----------7------2--2--2--3----------3------3--3--3--2------------------------|
A|-5--5-5-5-5-5--5-5-5--5--5--3--3-3-3-3-3--3-3-0--0--0--1--1-1-1-1-1--1-1-1--1--1--0----------0--2--0--7--8-|
D|-----------------------------------------------------------------------------------------------------------|
      * * * *    * *             * * * *    * *             * * * *    * *                     *  *  *

e|-----------------------------------------------------------------------------------------------------------|
B|-----------------------------------------------------------------------------------------------------------|
G|----------------------------------------------5--5--5------------------------------------------------------|
D|-------------------2--2--2--3----------3------5--5--5--5----------3------3--3--3--2----------0--7--0--3--7-|
A|-0----------0------2--2--2--3----------3------3--3--3--1--1-1-1-1-1--1-1-1--1--1--0------------------------|
D|-0--0-0-0-0-0--0-0-2--2--2--3--3-3-3-3-3--3-3--------------------------------------------------------------|
      * * * *    * *             * * * *    * *             * * * *    * *                     *  *  *

e|-----------------------------------------------------------------------------------------------------------|
B|-----------------------------------------------------------------------------------------------------------|
G|-7----------7------7--7--7-----------------------------3----------3------3--3--3--2------------------------|
D|-7----------7------7--7--7--7----------7------2--2--2--3----------3------3--3--3--2------------------------|
A|-5--5-5-5-5-5--5-5-5--5--5--3--3-3-3-3-3--3-3-0--0--0--1--1-1-1-1-1--1-1-1--1--1--0----------0--2--0--7--8-|
D|-----------------------------------------------------------------------------------------------------------|
      * * * *    * *             * * * *    * *             * * * *    * *                     *  *  *

e|-----------------------------------------------------------------------------------------------------------|
B|-----------------------------------------------------------------------------------------------------------|
G|----------------------------------------------5--5--5------------------------------------------------------|
D|-------------------2--2--2--3----------3------5--5--5--5----------3------3--3--3--2----------0--7--0--3--7-|
A|-0----------0------2--2--2--3----------3------3--3--3--1--1-1-1-1-1--1-1-1--1--1--0------------------------|
D|-0--0-0-0-0-0--0-0-2--2--2--3--3-3-3-3-3--3-3--------------------------------------------------------------|
      * * * *    * *             * * * *    * *             * * * *    * *                     *  *  *

e|--------------------------------------------|
B|--------------------------------------------|
G|-3------------------------------------------|
D|-3----3--3--3--3--3--2----2----2----2--2--2-|
A|-1----1--1--1--1--1--0----0----0----0--0--0-|
D|---------------------0----0----0------------|
        *  *  *  *  *

1:56[Chorus]
e|----------8--8--8--8--8--7--7--7--7--8--8--8-------------------------------------------------------------|
B|----------10-10-10-10-10-10-10-10-10-10-10-10------------------------------------------------------------|
G|----------10-10-10-10-10-10-10-10-10-10-10-10------------------------------------------------------------|
D|-0--0--0--8--8--8--8--8--7--7--7--7--8--8--8-------------------------------10----------------------------|
A|-0--0--0--8--8--8--8--8--7--7--7--7--8--8--8--------8-10-12-----10--12-----10----10--13--10--10-13-13-13-|
D|-0--0--0--9--9--9--9--9--8--8--8--8--9--9--9--/8-------------8----------0--10----10------10--------------|
                                                               *          *        *       *

e|----------8--8--8--8--7--7--7------------------7--7--7--7--7------------------------|
B|----------10-10-10-10-10-10-10-----------------7--7--7--7--7------------------------|
G|----------10-10-10-10-10-10-10-----------7--7--7--7--7--7--7------------------------|
D|-0--0--0--8--8--8--8--7--7--7--5----7----7--7--7--7--7--7--7--3--------3----3--3--3-|
A|-0--0--0--8--8--8--8--7--7--7--5----7----7--7--7--7--7--7--7--3--3--3--3----3--3--3-|
D|-0--0--0--9--9--9--9--8--8--8--5----7----8--8--8--8--8--8--8--3--3--3--2----2--2--2-|
                                                                   *  *

e|----------8--8--8--8--8--7--7--7--7--8--8--8-------------------------------------------------------------|
B|----------10-10-10-10-10-10-10-10-10-10-10-10------------------------------------------------------------|
G|----------10-10-10-10-10-10-10-10-10-10-10-10------------------------------------------------------------|
D|-0--0--0--8--8--8--8--8--7--7--7--7--8--8--8-------------------------------10----------------------------|
A|-0--0--0--8--8--8--8--8--7--7--7--7--8--8--8--------8-10-12-----10--12-----10----10--13--10--10-13-13-13-|
D|-0--0--0--9--9--9--9--9--8--8--8--8--9--9--9--/8-------------8----------0--10----10------10--------------|
                                                               *          *        *       *

e|----------8--8--8--8--7--7--7------------------7--7--7--7--7------------------------|
B|----------10-10-10-10-10-10-10-----------------7--7--7--7--7------------------------|
G|----------10-10-10-10-10-10-10-----------7--7--7--7--7--7--7------------------------|
D|-0--0--0--8--8--8--8--7--7--7--5----7----7--7--7--7--7--7--7--3--------3----3--3--3-|
A|-0--0--0--8--8--8--8--7--7--7--5----7----7--7--7--7--7--7--7--3--3--3--3----3--3--3-|
D|-0--0--0--9--9--9--9--8--8--8--5----7----8--8--8--8--8--8--8--3--3--3--2----2--2--2-|  
                                                                   *  *

2:21[Interlude Lead]
   t       t    t       t    t       t       t    t       t    t       t       t    t       t    t
e|-------------------------------------------------------------------------------------------------------|
B|-------------------------------------------------------------------------------------------------------|
G|-19-7-10-21-7-21-7-10-23-7-23-7-10-19-7-10-21-7-21-7-10-23-7-23-7-10-19-7-10-21-7-21-7-10-23-7-23-7-10-|
D|-------------------------------------------------------------------------------------------------------|
A|-------------------------------------------------------------------------------------------------------|
D|-------------------------------------------------------------------------------------------------------|

   t       t    t       t    t       t       t    t       t    t       t       t    t       t    t
e|-------------------------------------------------------------------------------------------------------|
B|-------------------------------------------------------------------------------------------------------|
G|-19-7-10-21-7-21-7-10-23-7-23-7-10-19-7-10-21-7-21-7-10-23-7-23-7-10-19-7-10-21-7-21-7-10-23-7-23-7-10-|
D|-------------------------------------------------------------------------------------------------------|
A|-------------------------------------------------------------------------------------------------------|
D|-------------------------------------------------------------------------------------------------------|

2:21[Interlude Rhythm]
e|-------------------------------------------------------------------------------------------------------|
B|-------------------------------------------------------------------------------------------------------|
G|-------------------------------------------------------------------------------------------------------|
D|-------------------------------------------------------------------------------------------------------|
A|-0-------0----0-------0----0-------0-------0----0-------0----0-------0-------0----0-------0----0-------|
D|-0-------0----0-------0----0-------0-------0----0-------0----0-------0-------0----0-------0----0-------|
   *       *    *       *    *       *       *    *       *    *       *       *    *       *    *

e|-------------------------------------------------------------------------------------------------------|
B|-------------------------------------------------------------------------------------------------------|
G|-------------------------------------------------------------------------------------------------------|
D|-------------------------------------------------------------------------------------------------------|
A|-0-------0----0-------0----0-------0-------0----0-------0----0-------0-------0----0-------0----0-------|
D|-0-------0----0-------0----0-------0-------0----0-------0----0-------0-------0----0-------0----0-------|
   *       *    *       *    *       *       *    *       *    *       *       *    *       *    *

2:30
e|-------------------------------------------------------------------------------------------|
B|-------------------------------------------------------------------------------------------|
G|-------------------------10--------------------------------7-----------------------10------|
D|-0------5--7-----8-------10---7------8--7--5--0------------7------5--7-----8-------10---7--|
A|-0------------5--8----0--8----9---------------0----0-------5------------5--8----0--8----9--|
D|-0---------------8----0-------10--------------0----0--3~-------------------8----0-------10-|
                        *                            *                            *

e|----------------------------------------------------------------------------------------------------------|
B|----------------------------------------------------------------------------------------------------------|
G|---------------------------------------------------------10--------------------------------7--------------|
D|-8--7--5--8-----7-----8--7--8~---0------5--7-----8-------10---7------8--7--5--0------------7------5--7----|
A|-------------5-----5-------------0------------5--8----0--8----9---------------0----0-------5------------5-|
D|---------------------------------0---------------8----0-------10--------------0----0--3~------------------|
               *     *                                  *                            *

e|--------------------------------------------------------------------------------------------------------|
B|--------------------------------------------------------------------------------------------------------|
G|---------10---------------------------------------------------------------------------------10-10-10----|
D|-8-------10---7------8--7--5--8-----7-----8--7--8~---0--------------5--7-----8--------------10-10-10-7--|
A|-8----0--8----9------------------5-----5-------------0--0--0--0--0--------5--8--8--8--8--8--8--8--8--9--|
D|-8----0-------10-------------------------------------0--0--0--0--0-----------8--8--8--8--8-----------10-|
        *                          *     *                *  *  *  *              *  *  *  *

e|--------------------------------------------------------------------------------------------------------|
B|--------------------------------------------------------------------------------------------------------|
G|--------------------------------------------------------------------------------------------------------|
D|-----------------8--7--5--0-------------------7------------------5--7-----------------------10-10-10----|
A|-9---9---9---9------------0--0--0--0--0-------5--5-5-5-5-5-5-5-5------5--8------------------8--8--8--9--|
D|-10--10--10--10-----------0--0--0--0--0--3~------------------------------8--8-8-8-8-8-8-8-8----------10-|
   *   *   *   *               *  *  *  *          * * * * * * * *            * * * * * * * *

                                                             |3:13
e|-----------------------------------------------------------|-------|
B|-----------------------------------------------------------|-------|
G|-----------------------------------------------------------|-------|
D|-------------------------8--7--5--8-----7-----8--7--8~---0-|-5~----|
A|-------------------------------------5-----5-------------0-|-------|
D|-10-10-10-10-10-10-10-10---------------------------------0-|-------|
   *  *  *  *  *  *  *  *

3:14[Verse]
e|-----------------------------------------------------------------------------------------------------------|
B|-----------------------------------------------------------------------------------------------------------|
G|-7----------7------7--7--7-----------------------------3----------3------3--3--3--2------------------------|
D|-7----------7------7--7--7--7----------7------2--2--2--3----------3------3--3--3--2------------------------|
A|-5--5-5-5-5-5--5-5-5--5--5--3--3-3-3-3-3--3-3-0--0--0--1--1-1-1-1-1--1-1-1--1--1--0----------0--2--0--7--8-|
D|-----------------------------------------------------------------------------------------------------------|
      * * * *    * *             * * * *    * *             * * * *    * *                     *  *  *

e|-----------------------------------------------------------------------------------------------------------|
B|-----------------------------------------------------------------------------------------------------------|
G|----------------------------------------------5--5--5------------------------------------------------------|
D|-------------------2--2--2--3----------3------5--5--5--5----------3------3--3--3--2----------0--7--0--3--7-|
A|-0----------0------2--2--2--3----------3------3--3--3--1--1-1-1-1-1--1-1-1--1--1--0------------------------|
D|-0--0-0-0-0-0--0-0-2--2--2--3--3-3-3-3-3--3-3--------------------------------------------------------------|
      * * * *    * *             * * * *    * *             * * * *    * *                     *  *  *

e|-----------------------------------------------------------------------------------------------------------|
B|-----------------------------------------------------------------------------------------------------------|
G|-7----------7------7--7--7-----------------------------3----------3------3--3--3--2------------------------|
D|-7----------7------7--7--7--7----------7------2--2--2--3----------3------3--3--3--2------------------------|
A|-5--5-5-5-5-5--5-5-5--5--5--3--3-3-3-3-3--3-3-0--0--0--1--1-1-1-1-1--1-1-1--1--1--0----------0--2--0--7--8-|
D|-----------------------------------------------------------------------------------------------------------|
      * * * *    * *             * * * *    * *             * * * *    * *                     *  *  *

e|-----------------------------------------------------------------------------------------------------------|
B|-----------------------------------------------------------------------------------------------------------|
G|----------------------------------------------5--5--5------------------------------------------------------|
D|-------------------2--2--2--3----------3------5--5--5--5----------3------3--3--3--2----------0--7--0--3--7-|
A|-0----------0------2--2--2--3----------3------3--3--3--1--1-1-1-1-1--1-1-1--1--1--0------------------------|
D|-0--0-0-0-0-0--0-0-2--2--2--3--3-3-3-3-3--3-3--------------------------------------------------------------|
      * * * *    * *             * * * *    * *             * * * *    * *                     *  *  *

e|--------------------------------------------|
B|--------------------------------------------|
G|-3------------------------------------------|
D|-3----3--3--3--3--3--2----2----2----2--2--2-|
A|-1----1--1--1--1--1--0----0----0----0--0--0-|
D|---------------------0----0----0------------|
        *  *  *  *  *

3:39[Chorus]
e|----------8--8--8--8--8--7--7--7--7--8--8--8-------------------------------------------------------------|
B|----------10-10-10-10-10-10-10-10-10-10-10-10------------------------------------------------------------|
G|----------10-10-10-10-10-10-10-10-10-10-10-10------------------------------------------------------------|
D|-0--0--0--8--8--8--8--8--7--7--7--7--8--8--8-------------------------------10----------------------------|
A|-0--0--0--8--8--8--8--8--7--7--7--7--8--8--8--------8-10-12-----10--12-----10----10--13--10--10-13-13-13-|
D|-0--0--0--9--9--9--9--9--8--8--8--8--9--9--9--/8-------------8----------0--10----10------10--------------|
                                                               *          *        *       *

e|----------8--8--8--8--7--7--7------------------7--7--7--7--7------------------------|
B|----------10-10-10-10-10-10-10-----------------7--7--7--7--7------------------------|
G|----------10-10-10-10-10-10-10-----------7--7--7--7--7--7--7------------------------|
D|-0--0--0--8--8--8--8--7--7--7--5----7----7--7--7--7--7--7--7--3--------3----3--3--3-|
A|-0--0--0--8--8--8--8--7--7--7--5----7----7--7--7--7--7--7--7--3--3--3--3----3--3--3-|
D|-0--0--0--9--9--9--9--8--8--8--5----7----8--8--8--8--8--8--8--3--3--3--2----2--2--2-|
                                                                   *  *

e|----------8--8--8--8--8--7--7--7--7--8--8--8-------------------------------------------------------------|
B|----------10-10-10-10-10-10-10-10-10-10-10-10------------------------------------------------------------|
G|----------10-10-10-10-10-10-10-10-10-10-10-10------------------------------------------------------------|
D|-0--0--0--8--8--8--8--8--7--7--7--7--8--8--8-------------------------------10----------------------------|
A|-0--0--0--8--8--8--8--8--7--7--7--7--8--8--8--------8-10-12-----10--12-----10----10--13--10--10-13-13-13-|
D|-0--0--0--9--9--9--9--9--8--8--8--8--9--9--9--/8-------------8----------0--10----10------10--------------|
                                                               *          *        *       *

e|----------8--8--8--8--7--7--7------------------7--7--7--7--7------------------------|
B|----------10-10-10-10-10-10-10-----------------7--7--7--7--7------------------------|
G|----------10-10-10-10-10-10-10-----------7--7--7--7--7--7--7------------------------|
D|-0--0--0--8--8--8--8--7--7--7--5----7----7--7--7--7--7--7--7--3--------3----3--3--3-|
A|-0--0--0--8--8--8--8--7--7--7--5----7----7--7--7--7--7--7--7--3--3--3--3----3--3--3-|
D|-0--0--0--9--9--9--9--8--8--8--5----7----8--8--8--8--8--8--8--3--3--3--2----2--2--2-|  
                                                                   *  *

4:01[Clean]
e|----------8--8--8--8--8--7--7--7--7--8--8--8-------------------------------------------------------------|
B|----------10-10-10-10-10-10-10-10-10-10-10-10------------------------------------------------------------|
G|----------10-10-10-10-10-10-10-10-10-10-10-10------------------------------------------------------------|
D|-0--0--0--8--8--8--8--8--7--7--7--7--8--8--8-------------------------------------------------------------|
A|-0--0--0--8--8--8--8--8--7--7--7--7--8--8--8--------8-10-12-----10--12---------------13------10-13-13-13-|
D|-0--0--0--9--9--9--9--9--8--8--8--8--9--9--9--/8-------------8----------0--10----10------10--------------|
                                                               *          *        *       *

e|----------8--8--8--8--7--7--7------------------7--7--7--7--7-------------|
B|----------10-10-10-10-10-10-10-----------------7--7--7--7--7-------------|
G|----------10-10-10-10-10-10-10-----------7--7--7--7--7--7--7-------------|
D|-0--0--0--8--8--8--8--7--7--7--5----7----7--7--7--7--7--7--7-------------|
A|-0--0--0--8--8--8--8--7--7--7--5----7----7--7--7--7--7--7--7--3--------3-|
D|-0--0--0--9--9--9--9--8--8--8--5----7----8--8--8--8--8--8--8--3--3--3--2-|
                                                                   *  *

4:11[Return]
e|----------8--8--8--8--8--7--7--7--7--8--8--8-------------------------------------------------------------|
B|----------10-10-10-10-10-10-10-10-10-10-10-10------------------------------------------------------------|
G|----------10-10-10-10-10-10-10-10-10-10-10-10------------------------------------------------------------|
D|-0--0--0--8--8--8--8--8--7--7--7--7--8--8--8-------------------------------10----------------------------|
A|-0--0--0--8--8--8--8--8--7--7--7--7--8--8--8--------8-10-12-----10--12-----10----10--13--10--10-13-13-13-|
D|-0--0--0--9--9--9--9--9--8--8--8--8--9--9--9--/8-------------8----------0--10----10------10--------------|
                                                               *          *        *       *

e|----------8--8--8--8--7--7--7------------------7--7--7--7--7------------------------|
B|----------10-10-10-10-10-10-10-----------------7--7--7--7--7------------------------|
G|----------10-10-10-10-10-10-10-----------7--7--7--7--7--7--7------------------------|
D|-0--0--0--8--8--8--8--7--7--7--5----7----7--7--7--7--7--7--7--3--------3----3--3--3-|
A|-0--0--0--8--8--8--8--7--7--7--5----7----7--7--7--7--7--7--7--3--3--3--3----3--3--3-|
D|-0--0--0--9--9--9--9--8--8--8--5----7----8--8--8--8--8--8--8--3--3--3--2----2--2--2-|
                                                                   *  *

e|----------8--8--8--8--8--7--7--7--7--8--8--8-------------------------------------------------------------|
B|----------10-10-10-10-10-10-10-10-10-10-10-10------------------------------------------------------------|
G|----------10-10-10-10-10-10-10-10-10-10-10-10------------------------------------------------------------|
D|-0--0--0--8--8--8--8--8--7--7--7--7--8--8--8-------------------------------10----------------------------|
A|-0--0--0--8--8--8--8--8--7--7--7--7--8--8--8--------8-10-12-----10--12-----10----10--13--10--10-13-13-13-|
D|-0--0--0--9--9--9--9--9--8--8--8--8--9--9--9--/8-------------8----------0--10----10------10--------------|
                                                               *          *        *       *

e|----------8--8--8--8--7--7--7------------------7--7--7--7--7------------------------|
B|----------10-10-10-10-10-10-10-----------------7--7--7--7--7------------------------|
G|----------10-10-10-10-10-10-10-----------7--7--7--7--7--7--7------------------------|
D|-0--0--0--8--8--8--8--7--7--7--5----7----7--7--7--7--7--7--7--3--------3----3--3--3-|
A|-0--0--0--8--8--8--8--7--7--7--5----7----7--7--7--7--7--7--7--3--3--3--3----3--3--3-|
D|-0--0--0--9--9--9--9--8--8--8--5----7----8--8--8--8--8--8--8--3--3--3--2----2--2--2-|
                                                                   *  *

4:34[Outro]
e|----------4--------------------------------------|
B|-4~-------4--------------------------------------|
G|-2--------2--------------------------------------|
D|-0--------0------0-------------------------------|
A|-0---------------0-------------------------------|
D|-0---------------0-------------------------------|

************************************

| t   Tapping
| /   Slide up
| \   Slide down
| ~   Vibrato
| *   Palm mute
| =   Artificial Harmonic

************************************
Suggest correction
Give kudos to tab author, rate the tab!
1 2 3 4 5
comments
print report bad tab
guest
You may want to rate the tab now too:
select rating
Wanna post a correction for this tab? Suggest correction