Oops, an error
Loading. Please wait.

Hero Of The Land Tab

version 1
version 1

Whole song

Interactive

237 views 3 this week
1 commentread comment
1 2 3 4 5
2 more votes to show rating
add to favorites
launch autoscroll
font size
0
reset
how to read this tab
guitar tuner
×
Best way to learn
"Hero Of The Land"
Autoscroll
slow
fast
+/-
esc
set tempo
stop
                             UNLEASHED - HERO OF THE LAND
                               From the Album - WARRIOR
                         Copyright - CENTURY MEDIA RECORDS 1997
                            Version 1.0 - December 19, 2002


Transcribed by: James Williams (Inverted)

For Questions, Comments, Newest Version, or Corrections contact
Inverted: at Inverted_one@hotmail.com

Check Out Death8699.com or Metaltabs.com for More Transcriptions:
http://www.Death8699.com http://www.Metaltabs.com

.  - palm mute           /  - slide up to
\  - slide down to       ~  - vibrato
h  - hammer on           b  - bend
p  - pull off            Suffixes for bend ^
ph - pinched harmonic     f - full bend    h - half bend
*  - see comment          r - release      t - tap bend
X  - Rest                 ~ - vibrato bend q - quarter bend
,  - slight palm mute    () - ghost note, sustained note
"  - Tromolo note        <> - Trill
t\ - Tap slide

Tuning: "B"E"A"D"F#"B"


Intro
|-----------------|-----------------|-----------------|-----------------|
|-----------------|-----------------|-----------------|-----------------|
|-----------------|-----------------|-----------------|-----------------|
|-----------------|-----------------|-----------------|-----------------|
|-10--------------|-(10)------------|-10--------------|-(10)------------|
|--8--------------|-(-8)------------|--8--------------|-(-8)------------|


Riff 1
|-----------------|-----------------|-----------------|-----------------|
|-----------------|-----------------|-----------------|-----------------|
|-----------------|-----------------|-----------------|-----------------|
|-----------------|-----------------|-----------------|-----------------|
|-10--------------|--8--------------|--5--------------|--6--------------|
|--8--------------|--6--------------|--3--------------|--4--------------|


Riff 2
|-----------------|-----------------|-----------------|-----------------|
|-----------------|-----------------|-----------------|-----------------|
|-----------------|-----------------|-----------------|-----------------|
|--5-------5-\-8--|-----8--8-\10----|--5-------5-\-8--|-----8-----------|
|--3-------3-\-6--|-----6--6-\-8----|--3-------3-\-6--|-----6--5--------|
|-------0---------|--0--------------|-------0---------|--0-----3--------|
        .            .                      .            .

End of Riff 2
|-----------------|
|-----------------|
|-----------------|
|-----------------|
|--6--------------|
|--4--------------|



Riff 3
|-----------------|-----------------|-----------------|-----------------|
|-----------------|-----------------|-----------------|-----------------|
|-----------------|-----------------|-----------------|-----------------|
|--8-\-10------10-|-10-/-8--------8-|--8-/-5-------5--|--5-/-6~------6--|
|-----------------|-----------------|-----------------|-----------------|
|-----------------|-----------------|-----------------|-----------------|


Solo
|-----------------|-----------------|-----------------|-----------------|
|-----------------|-----------------|-----------------|-----------------|
|-----------------|--------------14-|--------------15-|-17~------(17)/--|
|--8-\-10------12-|-13-15-----------|-15-17-----------|-----------------|
|-----------------|-----------------|-----------------|-----------------|
|-----------------|-----------------|-----------------|-----------------|
|                                                                       |
|                                                                       |
|-----------------|-----------------|-----------------|-----------------|
|-----------------|-----------------|-----------------|-----------------|
|-----------------|--------------14-|-----------------|-----------------|
|--8-\-10------12-|-13-15-----------|-15-17--------12-|-13~------(13)/--|
|-----------------|-----------------|-----------------|-----------------|
|-----------------|-----------------|-----------------|-----------------|
|                                                                       |
|  Gtr I&II                                                             |
|-----------------|-----------------|-----------------|-----------------|
|--6-\-8--------9-|-11--8---------6-|--6-\-8-------11-|-11-\-13---------|
|-----------------|-----------------|-----------------|-----------------|
|--3-\-5--------6-|--8--5---------3-|--3-\-5--------8-|--8-\-10---------|
|-----------------|-----------------|-----------------|-----------------|
|-----------------|-----------------|-----------------|-----------------|
|                                                                       |
|                                                                       |
|-----------------|-----------------|-----------------|-----------------|
|--6-\-8----8-h-9-|-11--6--------11-|-11-/-8-------11-|-11-\-13---------|
|-----------------|-----------------|-----------------|-----------------|
|--3-\-5----5-h-6-|--8--3---------8-|--8-/-5--------8-|--8-\-10---------|
|-----------------|-----------------|-----------------|-----------------|
|-----------------|-----------------|-----------------|-----------------|


Fill 1
|-----------------|-----------------|-----------------|
|-----------------|-----------------|-----------------|
|-----------------|-----------------|-----------------|
|-----------------|-----------------|-----------------|
|-10-------(10)/--|--8--------(8)/--|--5x-------------|
|--8-------(-8)/--|--6--------(6)/--|--3x-------------|

End
|-----------------------------------|-----------------------------------|
|-----------------------------------|-----------------------------------|
|-----------------------------------|-----------------------------------|
|-----------------------------------|-----------------------------------|
|--10101010101010101010101010101010-|-101010101010101010101010----------|
|---8-8-8-8-8-8-8-8-8-8-8-8-8-8-8-8-|--8-8-8-8-8-8-8-8-8-8-8-8--ect...--|
|                                                                       |
|                                                                       |
|-----------------------------------|-----------------------------------|
|-----------------------------------|-----------------------------------|
|-----------------------------------|-----------------------------------|
|-----------------------------------|-----------------------------------|
|--10-10-10-10-10-10-10-10-10-10-10-|--10-10-10-10-10------------(10)/--|
|---8--8--8--8--8--8--8--8--8--8--8-|---8--8--8--8--8------------(-8)/--|
Suggest correction
Give kudos to tab author, rate the tab!
1 2 3 4 5
comments
print report bad tab
1 comment total.
0 reply
Alartos 73 Feb 25, 2010 12:50 AM

i can't figure the octaves but something is wrong in them

guest
You may want to rate the tab now too:
select rating
Wanna post a correction for this tab? Suggest correction