Oops, an error
Loading. Please wait.

Crashing tab

version 1
version 1

Whole song

by Unloco
585 views 1 this week
3 commentsread comments
1 2 3 4 5
2 more votes to show rating
add to favorites
×
Save as Personal and add changes to this tab that will be seen only by you. Learn more ›
×
You can save this tab as Personal to edit and correct it or add notes. All changes will be seen only by you. Learn more »
launch autoscroll
font size
0
reset
how to read this tab
guitar tuner
edit
Autoscroll
slow
fast
+/-
esc
set tempo
stop
Band- Onloco
Song- Crashing

Intro:
Db|---------------------------------|
Ab|---------------------------------|
Fb|---------------------------------|
Cb|-2-2-2-3-3-3-2-2-2-3-3-3-2-2-3-3-|
Gb|---------------------------------|
Cb|---------------------------------|

Chorus:
Db|--------------------------------------------------|
Ab|--------------------------------------------------|
Fb|-------9-10-10-10-10-10-10-10---------------------|
Cb|-0-0---X-X--X--X--X--X--X--X--8-8--10-10-10---3-5-|
Gb|-0-0---7/8--8--8--8--8--8--8--8-8--10-10-10---3-5-|
Cb|-0-0--------------------------8-8--10-10-10---3-5-|

Verse:
Db|------------------------------------------------------------------------------------|
Ab|------------------------------------------------------------------------------------|
Fb|------------------------------------------------------------------------------------|
Cb|------------------------------------------------------------------------------------|
Gb|------------------------------------------------------------------------------------|
Cb|-12-12-12-12-12-12-12-12-12--7-7-7-7-7-7-7--8-8-8-8-8-8-8--10-10-10-10-10-10-10--10-|
    *  *  *  *  *  *  *  *  *   * * * * * * *  * * * * * * *  *  *  *  *  *  *  *   *

Pre-Chorus
Db|---------------------|
Ab|---------------------|
Fb|---------------------|
Cb|--10-10-10--10-10-10-|
Gb|--10-10-10--10-10-10-|
Cb|--10-10-10--10-10-10-|

Verse 2
Db|----------------------------------------------|
Ab|----------------------------------------------|
Fb|----------------------------------------------|
Cb|-12-12-12-12-12-7-7-7-7-8-8-8-8-8-10-10-10-10-|
Gb|-12-12-12-12-12-7-7-7-7-8-8-8-8-8-10-10-10-10-|
Cb|-12-12-12-12-12-7-7-7-7-8-8-8-8-8-10-10-10-10-|

Bridge:
Db|----------------------|
Ab|----------------------|
Fb|----------------------|
Cb|-0-0-0--10--0-0-10-0--|
Gb|-0-0-0--10--0-0-10-0--|
Cb|-0-0-0--10--0-0-10-0--|
               * *
Db|------------------------------------|
Ab|------------------------------------|
Fb|------------------------------------|
Cb|-0-0-0--3-3-3--0-0-0-3-3-3--0-0-3-3-|
Gb|------------------------------------|
Cb|------------------------------------|
    * * *  * * *  * * * * * *  * * * * 
Db|--------------------------------------|
Ab|--------------------------------------|
Fb|--------------------------------------|
Cb|-0-0-0--3-3-3--0-0-0--3-3-3--0-0--3-3-|
Gb|-0-0-0--3-3-3--0-0-0--3-3-3--0-0--3-3-|
Cb|-0-0-0--3-3-3--0-0-0--3-3-3--0-0--3-3-|
 
Interlude:                               
Db|------------------------------------|----|
Ab|------------------------------------|----|
Fb|-----------9-9-10-10-12-12-14-14\12-|----|
Cb|-0-0-0-0-0-x-x-x--x--x--x--x--x-\x--|-0~-|
Gb|-0-0-0-0-0-7-7-8--8--10-10-12-12\10-|-0~-|
Cb|-0-0-0-0-0--------------------------|-0~-|

            
            
Suggest correction
Creating personal tab
Creating personal tab
You can edit any tab online and save it as your Personal.

You can edit, replace or remove any tab part or add personal notes – all changes will be seen only by you.

Personal tabs can be accessed anytime from any device, even offline.
Learn more »
Give kudos to tab author, rate the tab!
1 2 3 4 5
comments
print report bad tab
3 comments total.
0 reply
ibanezeric82 103 Mar 28, 2006 10:56 AM

Not bad of a tab. Pretty close to how I play it. Just to let you know though, there is no C flat. It's just B. Same for F flat, which is just E.

0 reply
ibanezeric82 103 Mar 28, 2006 02:13 PM

THIS IS HOW THE INTRO GOES. The rest of the song is right.

Intro:
Db|---------------------------------|
Ab|---------------------------------|
E|---------------------------------|
B|---------------------------------|
Gb|-7-7-7-8-8-8-7-7-7-8-8-8-7-7-8-8-|
B|-0-0-0-0-0-0-0-0-0-0-0-0-0-0-0-0-|

Db|---------------------------------|
Ab|---------------------------------|
E|-----------------------------7---|
B|---------------------------------|
Gb|-7-7-7-8-8-8-7-7-7-8-8-8-7-7-----|
B|-0-0-0-0-0-0-0-0-0-0-0-0-0-0-----|
*(Natural Harmonics)

0 reply
ibanezeric82 103 Mar 29, 2006 02:32 PM

Dumb computer. It's supposed to be like this:

Intro:
Db|---------------------------------|
Ab|---------------------------------|
E |---------------------------------|
B |---------------------------------|
Gb|-7-7-7-8-8-8-7-7-7-8-8-8-7-7-8-8-|
B |-0-0-0-0-0-0-0-0-0-0-0-0-0-0-0-0-|

Db|---------------------------------|
Ab|---------------------------------|
E |-----------------------------7---|
B |---------------------------------|
Gb|-7-7-7-8-8-8-7-7-7-8-8-8-7-7-----|
B |-0-0-0-0-0-0-0-0-0-0-0-0-0-0-----|
*(Natural Harmonic)

guest
You may want to rate the tab now too:
select rating
Wanna post a correction for this tab? Suggest correction