Oops, an error
Loading. Please wait.

Texas Tab

version 3
version 3

Whole song

Interactive

1,762 views 3 this week
1 commentread comment
1 2 3 4 5
1 last vote to show rating
add to favorites
launch autoscroll
font size
0
reset
how to read this tab
guitar tuner
×
Best way to learn
"Texas"
Autoscroll
slow
fast
+/-
esc
set tempo
stop
Intro (Figure out the pattern yourself) 


|-----------0----------------0--------0-------3-------------------------||
|---0--0-0--0--0-0---0--0-0--0--0-0---0-------3--3-3--------------------||
|---9--9-9--9--9-9---9--9-9--9--9-9---5--5-5--5--5-5-----------7--7-7---||
|---9--9-9--9--9-9---9--9-9--9--9-9---5--5-5--5--5-3---5--5-5--7--7-7---||
|---7--7-7--7--7-7---0--0-0--0--0-0---3--3-3--0--3-3---5--5-5--5--5-5---||
|---0-----------------------------------------0--------3--3-3--0--0-0---|| 

Verse 1:

|-----------0----------------0----------------3-------------------------||
|---0--0-0--0--0-0---0--0-0--0--0-0---3--3-3--3--3-3--------------------||
|---9--9-9--9--9-9---9--9-9--9--9-9---5--5-5--5--5-5-----------7--7-7---||
|---9--9-9--9--9-9---9--9-9--9--9-9---5--5-5--5--5-3---5--5-5--7--7-7---||
|---7--7-7--7--7-7---0--0-0--0--0-0---3--3-3--3--3-3---5--5-5--5--5-5---||
|---------------------------------------------0--------3--3-3--x--x-x---||

On the last time playing the verse you end it with this part

|-----------0----------------0----------------3----------------5--5-5/--||
|---0--0-0--0--0-0---0--0-0--0--0-0---3--3-3--3--3-3-----------5--5-5/--||
|---9--9-9--9--9-9---9--9-9--9--9-9---5--5-5--5--5-5-----------7--7-7/--||
|---9--9-9--9--9-9---9--9-9--9--9-9---5--5-5--5--5-3---5--5-5--7--7-7/--||
|---7--7-7--7--7-7---0--0-0--0--0-0---3--3-3--3--3-3---5--5-5--5--5-5/--||
|------------------------------------------------------3--3-3--5--5-5/--|| 

Chorus 1 goes something like this.

|---0--0-0--0--0-0---3--3-3--3--3-3---3--3-3--3--3-3---5--5-5--5--5-5---||
|---8--8-8--8--8-8---3--3-3--3--3-3---3--3-3--3--3-3---5--5-5--5--5-5---||
|---9--9-9--9--9-9---5--5-5--5--5-5---4--4-4--4--4-4---7--7-7--7--7-7---||
|---9--9-9--9--9-9---5--5-5--5--5-5---5--5-5--5--5-3---7--5-5--7--7-7---||
|---7--7-7--7--7-7---3--3-3--3--3-3---5--5-5--5--5-5---5--5-5--5--5-5---||
|-------------------------------------3--3-3--3--3-3---5--3-3--5--5-5---|| 

Verse 2 (Same as the first verse and intro)

then

Chorus 2 (Same as intro, but add in 2 guitars for a stronger sound)

Outro:

|----------------------------3------------------------------------------||
|----------------------------3---------------------------------5--------||
|---5--5-5--5--5-5---5--5-5--5--5-5---4--4-4--4--4-4---7-7-7-7-7---7----||
|---5--5-5--5--5-5---5--5-5--5--5-5---5--5-5--5--5-5---7-7-7-7---7-7----||
|---3--3-3--3--3-3---3--3-3--3--3-3---5--5-5--5--5-5---5-5-5-5-----5----||
|-------------------------------------3--3-3--3--3-3--------------------||

|----------------------------3------------------------------------------||
|----------------------------3---------------------------------5--------||
|---5--5-5--5--5-5---5--5-5--5--5-5---4--4-4--4--4-4---7-7-7-7---7------||
|---5--5-5--5--5-5---5--5-5--5--5-5---5--5-5--5--5-5---7-7-7-7-----7----||
|---3--3-3--3--3-3---3--3-3--3--3-3---5--5-5--5--5-5---5-5-5-5----------||
|-------------------------------------3--3-3--3--3-3--------------------||

|----------------------------3------------------------------------------||
|----------------------------3------------------------------------------||
|---5--5-5--5--5-5---5--5-5--5--5-5---4--4-4--4--4-4---7-7-7-7-7-7-7----||
|---5--5-5--5--5-5---5--5-5--5--5-5---5--5-5--5--5-5---7-7-7-7-7-7-7----||
|---3--3-3--3--3-3---3--3-3--3--3-3---5--5-5--5--5-5---5-5-5-5-5-5-5----||
|-------------------------------------3--3-3--3--3-3--------------------||

|-----------3----------------3----------------3---------0~--------------||
|-----------3----------------3----------------3---------0~--------------||
|---5--5-5--5--5-5---5--5-5--5--5-5---5--5-5--5--5-5----9~--------------||
|---5--5-5--5--5-5---5--5-5--5--5-5---5--5-5--5--5-5----9~--------------||
|---3--3-3--3--3-3---3--3-3--3--3-3---3--3-3--3--3-3----7~--------------||
|-----------------------------------------------------------------------||

-Fin-
Suggest correction
Give kudos to tab author, rate the tab!
1 2 3 4 5
comments
print report bad tab
1 comment total.
0 reply
ibanezeric82 103 Mar 28, 2006 01:35 PM

Where's the lead part during the chorus?

guest
You may want to rate the tab now too:
select rating
Wanna post a correction for this tab? Suggest correction