Oops, an error
Loading. Please wait.

El Mamut bass

103 views 1 this week
no commentswrite comment
1 2 3 4 5
3 more votes to show rating
add to favorites
×
Save as Personal and add changes to this tab that will be seen only by you. Learn more ›
×
You can save this tab as Personal to edit and correct it or add notes. All changes will be seen only by you. Learn more »
launch autoscroll
font size
0
reset
guitar tuner
edit
Autoscroll
slow
fast
+/-
esc
set tempo
stop
Aqui esta la rola en bajo del mamut
suicida, fumador, alcoholico, urgido y drogo
haha

Un mamut chiquitito quería volar...
(0:20)
G--------------------------
D-------------------------- x3
A----------------5~5-3-2---
E---3~-3-0~-0-5~-----------

G--------------------
D--------------------
A----------------5---
E---3~-3-0~-0-5~-----

Mierda...
G-------------------------
D------------------------- x3
A------------------5555---
E---3333-0000-5555--------

G----------------------
D----------------------
A------------------5---
E---3333-0000-5555-----

Un mamut chiquitito quería fumar...
G--------------------------
D-------------------------- x3
A----------------5~5-3-2---
E---3~-3-0~-0-5~-----------

G--------------------
D--------------------
A----------------5---
E---3~-3-0~-0-5~-----

Cáncer...
G-------------------------
D------------------------- x3
A------------------5555---
E---3333-0000-5555--------

G----------------------
D----------------------
A------------------5---
E---3333-0000-5555-----

Un mamut chiquitito quería tomar...
G--------------------------
D-------------------------- x3
A----------------5~5-3-2---
E---3~-3-0~-0-5~-----------

G--------------------
D--------------------
A----------------5---
E---3~-3-0~-0-5~-----

Cirrosis...
G-------------------------
D------------------------- x3
A------------------5555---
E---3333-0000-5555--------

G----------------------
D----------------------
A------------------5---
E---3333-0000-5555-----

Un mamut chiquitito quería debutar...
G--------------------------
D-------------------------- x3
A----------------5~5-3-2---
E---3~-3-0~-0-5~-----------

G--------------------
D--------------------
A----------------5---
E---3~-3-0~-0-5~-----

Sida...
G-------------------------
D------------------------- x3
A------------------5555---
E---3333-0000-5555--------

G----------------------
D----------------------
A------------------5---
E---3333-0000-5555-----

Un mamut chiquitito se quería drogar...
G--------------------------
D-------------------------- x3
A----------------5~5-3-2---
E---3~-3-0~-0-5~-----------

G--------------------
D--------------------
A----------------5---
E---3~-3-0~-0-5~-----

Sobredosis...
G-------------------------
D------------------------- x3
A------------------5555---
E---3333-0000-5555--------

G----------------------
D----------------------
A------------------5---
E---3333-0000-5555-----


Y ahora, qué le pasó?

Se murió...
G-------------------------------------
D-------------2----------------------- x3
A-----2-5-2-3---5-2-----2-5-2-3-2-5---
E---3-----------------3---------------

G----------------------------------------
D-------------2--------------------------
A-----2-5-2-3---5-2-----2-5-2-3-2-5------
E---3-----------------3--------------3~~~

Para la parte final escuchen la cancion...
y ahora ya tienen al mamut en su repertorio
jaja

            
            
Suggest correction
Creating personal tab
Creating personal tab
You can edit any tab online and save it as your Personal.

You can edit, replace or remove any tab part or add personal notes – all changes will be seen only by you.

Personal tabs can be accessed anytime from any device, even offline.
Learn more »
Give kudos to tab author, rate the tab!
1 2 3 4 5
comments
print report bad tab
guest
Wanna post a correction for this tab? Suggest correction